No Doubt - Open The Gate Chords & Tabs

 

Open The Gate Chords & Tabs

No Doubt Chords & Tabs

Version: 1 Type: Bass Tab 0 ratings
1 star 2 stars 3 stars 4 stars 5 stars
comments

Open The Gate Bass Tab

No Doubt - Open The Gate
Submitted By: Anjel
EMail: chimchim221@yahoo.com
Transcribed by Adam Yanalunas 
[ Tab from: http://www.guitartabs.cc/tabs/n/no_doubt/open_the_gate_btab.html ]
Four Four Time  Main Line             Fill
------|---|--------------------------|---------------------------
------|-4-|------8--8--8-------------|-------------------4--5--6-
------|-4-|--------------6--6--7--8--|-------4--4--5--6----------
-4--5-|---|-6--6---------------------|-4--4----------------------
                                       
   Next Part                          
------------------------------------------------
------------------------------------------------
------------------------------------------------
-4--4--4--4--4--4--4--4--9--9--9--9--9--9--9--9-
                                                 
------------------------------------------------
------------------------------------------------
------------------------------------------------
-6--6--6--6--6--6--6--6--4--4--4--4--4--4--4--4-
                                                 
--------------------------------------------------------
--------------------------------------------------------
--------------------------------------------------------
-9--9--9--9--9--9--9--9--11--11--11--11--11--11--11--11-
                                                    
                                          Fill 2 
----------------------------------|---8--8--7--7--6--6----------
----------------------------------|---------------------8--7--6-
----------------------------------|-----------------------------
-6--6-----6--6-----6--6-----4--5--|-----------------------------
   
------------------------------------------------------------
------------------------------------------------------------
------------------------------------------------------------
---6--6--6--6--6--4--4--4--4--9--9--9--9--9--11--11--11--11-
                                                        
---------------------------------------||---------------------||
-------8-----8--------------8-----8----||*--------6-----6----*||
---------------------------------------||*-------------------*||
-6--6-----6-----6-----6--6-----6-----6-||---4--4-----4-----4--||
                                                            
--------------------------------------||----------------------||
-------11-----11----------11----11----||*--------13----13----*||
--------------------------------------||*--------------------*||
-9--9------9------9--9--9-----9----11-||--11--11----11----11--||
                                         
Interlude (not complete)
Comments