No Doubt - New Chords & Tabs

 

New Chords & Tabs

No Doubt Chords & Tabs

Version: 1 Type: Tab 0 ratings
1 star 2 stars 3 stars 4 stars 5 stars
comments

New Tab

New	
No doubt	
tabbed by adrian if you want no doubt tabs e-mail me jt4467@aol.com
THIS TOOK FOR EVER ENJOY!!!
Intro
E----0---0-0-0-----9---9-9-9----2---2-2-2----0---0-0
B----2---2-2-2-----9---9-9-9----2---2-2-2----0---0-0
G----2---2-2-2-----9---9-9-9----2---2-2-2----1---1-1
D----2---2-2-2-----11-111111----4---4-4-4----2---2-2
A-0--0---0-0-0-----11-111111----4---4-4-4----2---2-2
E---------------9--9---9-9-9-2--2---2-2-2-0--0---0-0
The verse riff w/flanger
D-----4-------3-----------------------4--------3-----------------
A---------------------7-------6------------------------7------6--
E-2-2---2-4-4---4-5-5---5-7-7---7-2-2----2-4-4---4-5-5--5-7-7---7
THEN IT CHANGES RIGHT BEFORE PRE-CHOURS
D-----4-------3-----------------------4-------3-------2-------1-7
A---------------------7-------6---------------------------2-2---5
E-2-2---2-4-4---4-5-5---5-7-7---7-2-2---2-1-1---1-0-0---0--------
PRE-CHOURS
D-7-7--9-9-9-9--11-11-11-11--11-11-11-7--7-7--9-9-9-----------------7
A-5-5--7-7-7-7--9--9--9--9---9---9--9-5--5-5--7-7-7-0-4-4-4-4-4-4-4-5
E-----------------------------------------------------2-2-2-2-2-2-2--
[ Tab from: http://www.guitartabs.cc/tabs/n/no_doubt/new_tab.html ]
D-7-7---------------------------------------------------
A-5-5---2-2-2-2--4-4-4-4--------------------------------
E-------0-0-0-0--2-2-2-2-4-4-4-4-5-5-5-5-7-7-7-7-8-8-8-9
CHOURS
E--------------------------------------0---------------2-------0--
B----2-----------------------------------------6-----2---2---0---0
G--2---2-------4-------2-------1-----2---2---4---4----------------
D------------3---3---3---3---2---2--------------------------------
A0---------4-----------------------0-------4----------------------
E------------------2-------0-----------------------2-------0------
"AND I CANT BELIEVE"PART PLAY THIS
E-----0------------2-----0----------------------------------------------
B-----2-------6----2-----0------2---------------------------------------
G-----2-------4----2-----1----2---2---3---------------------------------
D-----2-------6----4-----2----------4---2------4-------3-------2-----1--
A--0--0---4---4----4-----2--0------------------------------------2-2---2
E---------------2--2--0--0-----------------2-2---2-1-1---1-0-0--0-------
BRIDGE X4
G-----2-------2-------2-------2---
D---4---4---4---4---4---4---4---4-
A-5-------4-------3-------4-------
AT THE VERY END
E-------4------2--
B-------6--6---2--
G-----4-----------
D---6-------------
A-4----------4----
E------------2----



Comments