No Doubt - Marry Me Chords & Tabs

 

Marry Me Chords & Tabs

No Doubt Chords & Tabs

Version: 1 Type: Bass Tab 0 ratings
1 star 2 stars 3 stars 4 stars 5 stars
comments

Marry Me Bass Tab

MARRY ME - Return Of Saturn
No Doubt

Transcribed by: Alexander Ong (ahleckxs@hotmail.com)

INTRO

G|-----9----------------|
D|---9--------7---------| (4x)
A|-7--------5---(5)---5-|
E|-------8\---------7---|

VERSE 1

G|-----9----------------|
D|---9--------7---------| (4x)
A|-7--------5---(5)---5-|
E|-------8\---------7---|

G|-----------7---------------|	    |-----------7-------------|
D|-9-------9-----9-------7-7-| (3x) |-9-------9-----9---------|
A|---7---7-----7---7---7-----|      |---7---7-----7-------5-5-|
E|-----8-------------8-------|      |-----8-----------8-------|

CHORUS

G|-----9----------------|
D|---9--------7---------| (4x)
A|-7--------5---(5)---5-|
E|-------8\---------7---|

VERSE 2

G|-----9----------------|
D|---9--------7---------| (4x)
A|-7--------5---(5)---5-|
E|-------8\---------7---|

G|-----9-------7-----7-------|      |-----9-------7-----------|
D|---9-------9-----7---------| (3x) |---9-------9-----7-------|
A|-7-------7-----5---------5-|      |-7-------7-----5---5-----|
E|-------8-------------0-7---|      |-------8-------------0-7-|

CHORUS

G|-----9----------------|
D|---9--------7---------| (4x)
A|-7--------5---(5)---5-|
E|-------8\---------7---|

(pause)

VERSE

G|-----9---------------|-----9---------------|
D|---9-------7---------|---9-------7---------|
A|-7-------5---5-----5-|-7-------5---5-------|
E|-------8-------5h7---|-------8-------5-7-5-|

G|-----9---------------|-----9-------------|
D|---9-------7---------|---9-------7-------|
A|-7-------5---5-----5-|-7-------5---5---5-|
E|-------8-------5h7---|-------8-------7---|

INSTRUMENTAL

G|----------------------|-----------------|-----------------|-----------|
D|----------------------|-----------------|-----------------|-----------|
A|-7------5---5-----5-7-|---5---9-----5-7-|---5---5-----5-7-|---5-------|
E|------7---7-----7-----|-7---7-----7-----|-7---7-----7-----|-7---7-2/x-|

CHORUS

(no basslines)

G|-----9----------------|
D|---9--------7---------| (2x)
A|-7--------5---(5)---5-|
E|-------8\---------7---|
[ Tab from: http://www.guitartabs.cc/tabs/n/no_doubt/marry_me_btab.html ]
G|-----9----------------|-----9------------------|
D|---9--------7---------|---9--------7-----------|
A|-7--------5---(5)---5-|-7--------5---(5)-----5-|
E|-------8\---------7---|-------8\---------5h7---|

VERSE

G|-----9----------------|
D|---9--------7---------| (4x)
A|-7--------5---(5)---5-|
E|-------8\---------7---|

OUTRO

(no basslines)

G|-----9-------7-----7---------|-----------7---------------|
D|---9-------9-----7-----------|-9-------9-----9-------7-7-|
A|-7-------7-----5-----(5)---5-|---7---7-----7---7---7-----|
E|-------8-----------------7---|-----8-------------8-------|

G|-------------|-----------|-------------|-----------|
D|-------------|-----------|-------------|-----------| (2x)
A|-7-7---7---7-|-5-5-----5-|-7-7---7---7-|-5-5-------|
E|-----7---7---|-----5h7---|-----7---7---|-----5h7-5-|
Happily ever after..(4x)

G|-----------|-----|
D|-----------|-----| (2x)
A|---------7-|-5-5-|
E|-0-0-7h9---|-----|

G|-------------|-----------|-------------|-----------|
D|-------------|-----------|-------------|-----------|
A|-7-7---7---7-|-5-5-----5-|-7-7---7---7-|-5-5-------|
E|-----7---7---|-----5h7---|-----7---7---|-----5h7-5-|

G|-------------|-----------|-------------|-----|
D|-------------|-----------|-------------|-----|
A|-7-7---7---7-|-5-5-----5-|-7-7---7---7-|-5-5-|
E|-----7---7---|-----5h7---|-----7---7---|-----|

G|-----------|-------------|-----------|-------------|
D|-----------|-------------|-----------|-------------|
A|---------7-|-5-5-------5-|---------7-|-5-5---------|
E|-0-0-7h9---|-----0-5h7---|-0-0-7h9---|-----0-5h7-5-|

G|-----------|-------------|-----------|-------------|
D|-----------|-------------|-----------|-------------|
A|---------7-|-5-5-------5-|---------7-|-5-5-------5-|
E|-0-0-7h9---|-----0-5h7---|-0-0-7h9---|-----0-5h7---|

G|-------------|-------------|
D|-------------|-------------| (4x)
A|-7-7---7---7-|-5-5---5---5-|
E|-----7---7---|-----5---5---|

G|-----9----------------|
D|---9--------7---------| (repeat until fade)
A|-7--------5---(5)---5-|
E|-------8\---------7---|


It's hot here in the Philippines. :)

Comments