No Doubt - Magics In The Makeup Chords & Tabs

 

Magics In The Makeup Chords & Tabs

No Doubt Chords & Tabs

Version: 1 Type: Bass Tab 0 ratings
1 star 2 stars 3 stars 4 stars 5 stars
comments

Magics In The Makeup Bass Tab

MAGIC'S IN THE MAKE UP - Return Of Saturn
No Doubt

Transcribed by: Alexander Ong (ahleckxs@hotmail.com)

INTRO (no bassline)

VERSE 1

G|---------|
D|---------|
A|---0-3-3-|
E|-1-------|

G|-------|---------|
D|-------|---------|
A|-3-2-0-|---0-3-3-|
E|-------|-1-------|

G|----------------|---------|
D|-----2---2------|---------|
A|-2-3---3--3-2-0-|---0-3-3-|
E|----------------|-1-------|

G|-----------|---------|                            |-----4-5-9\-|
D|-1/2-------|---------|			    |-3-5--------|
A|-----2-3---|---0-3-3-|			    |------------|
E|---------3-|-1-------|			    |------------|

G|--------------------------|-----------|
D|--------------------------|-----------|
A|---0-3-3---0-3-3---0-3--3-|-----0-2---|
E|-1-------1-------1--------|-1-3-----3-|

G|--------------------------|---------------|
D|--------------------------|---------------|
A|---0-3-3---0-3-3---0-3--3-|-----0-2-0-----|
E|-1-------1-------1--------|-1-3-------3-1-|

G|------------------------|----------|
D|------------------------|----------|
A|---0-3-3---0-3-3---0-3--|-3/7\5/10-|
E|-1-------1-------1------|----------|

G|--------------------------|
D|--------------------------|
A|---0-3-3---0-3-3---0-3--3-|
E|-1-------1-------1--------|

CHORUS

G|-10-9---------| |-------------------|
D|------12-10\3-| |-3/15-14-----------|
A|--------------| |---------17-15\10\-|
E|--------------| |-------------------|

G|-10-9---------|    |-------------------|
D|------12-10\3-|    |-3/15-14-----------|
A|--------------|    |---------17-15\10\-|
E|--------------|    |-------------------|

VERSE 2

G|---------|
D|---------|
A|---0-3-3-|
E|-1-------|

G|-----------|---------|
D|-/10^-9-7\-|---------|
A|-----------|---0-3-3-|
E|-----------|-1-------|

G|------------------------|---------|
D|------------------------|---------|
A|-3-3-3-------0-0-7-7-5\-|---0-3-3-|
E|-------3-3-3------------|-1-------|

G|-----------|---------|
D|-1/2-------|---------|
A|-----2-3---|---0-3-3-|
E|---------3-|-1-------|

G|--------------------17----|
D|-14-15-17--14-15-17----17-|
A|--------------------------|
E|--------------------------|

G|--------------------------|     |-----------|
D|--------------------------|     |-----------|
A|---0-3-3---0-3-3---0-3--3-|     |-----0-2---|
E|-1-------1-------1--------|     |-1-3-----3-|
[ Tab from: http://www.guitartabs.cc/tabs/n/no_doubt/magics_in_the_makeup_btab.html ]
G|--------------------------|---------------|
D|--------------------------|-----2---2-----|
A|---0-3-3---0-3-3---0-3--3-|-2-3---3---3-2-|
E|-1-------1-------1--------|---------------|

CHORUS

G|-10-9---------|  |-------------------|
D|------12-10\3-|  |-3/15-14-----------|
A|--------------|  |---------17-15\10\-|
E|--------------|  |-------------------|

G|-10-9---------|        |-------------------|
D|------12-10\3-|        |-3/15-14-----------|
A|--------------|        |---------17-15\10\-|
E|--------------|        |-------------------|

LEAD

G|---------------------------------------|
D|---------------------------------------| (2x)
A|-5-5-5-5-----5-5-----3-3-3-3-----------|
E|---------5\------5\----------3\--3-3-3-|

G|-------------------------------|
D|-------------------------------|
A|-8-7-5-8\-3---8-10-12-14-15-10-|
E|------------3------------------|

CHORUS

G|--------------------------------| |---------------------------------|
D|--------------------------------| |---------------------------------|
A|-8-7-5--------------------3-----| |-8-7-5---------------------------|
E|-------8-1-0-1-0-1--1-1-1---1-1-| |-------8-3-3/5/15-15-15-15-17-15-|

G|--------------------------------| |-----------------|
D|--------------------------------| |-----------------|
A|-8-7-5--------------------3-----| |-8-7-5-------2-5-|
E|-------8-1-0-1-0-1--1-1-1---1-1-| |-------8-3-5-----|

G|------------------------------------------------|
D|-3-3--3-2-0--3-3--3-2-0-------------------------|
A|-------------------------3-3--3-2-0---------0-3-|
E|-------------------------------------3-3--3-----|

G|------------------------------------------------|
D|-3-3--3-2-0--3-3--3-2-0-------------------------|
A|-------------------------3-3--3-2-0---------0-3-|
E|-------------------------------------3-3--3-----|

G|------------------------------------------------|
D|------------------------------------------------|
A|----------0-----------0--3-3--3-2-0---------0-3-|
E|-1-1--1-3----1-1--1-3----------------3-3--3-----|

G|---------------------------------------|
D|---------------------------------------|
A|----------0-----------0--3-3--3-2-0----|
E|-1-1--1-3----1-1--1-3----------------3-|

G|-------------| |-------------|
D|-------------| |-------------|
A|-8-7-5-------| |-8-7-5-------|
E|-------8\1-1-| |-------8\3-3-|

G|-10-9---------|  |-------------------|
D|------12-10\3-|  |-3/15-14-----------|
A|--------------|  |---------17-15\10\-|
E|--------------|  |-------------------|

This is the first tab I did. sorry for mistakes =P~.

Comments