No Doubt - Lets Get Back Chords & Tabs

 

Lets Get Back Chords & Tabs

No Doubt Chords & Tabs

Version: 1 Type: Tab 0 ratings
1 star 2 stars 3 stars 4 stars 5 stars
comments

Lets Get Back Tab

#----------------------------------PLEASE NOTE---------------------------------#
#This file is the author's own work and represents their interpretation of the-#
#song. You may only use this file for private study, scholarship, or research.-#
#------------------------------------------------------------------------------#

No Doubt
LET'S GET BACK
(G. Stefani, E. Stefani, T. Kanal, T. Dumont)
Transcribed by Bill Zang 


Intro (And used before Trumpet solo)
e|---------------------------|       |----------------------------------|
B|---------------8--8--------|       |----------8-x-8-x-8-x-x-----------|
G|--3--3--3--3---8--8----2---| X 3   |--5---7---8-x-8-x-8-x-x--7--7-----|
D|--5--5--5--5---8--8----3---|       |--6---8---8-x-8-x-8-x-x--8--8-----|
A|--5--5--5--5---6--6----3---|       |--6---8---6-x-6-x-6-x-x--8--8-----|
E|--3--3--3--3-----------1---|       |--4---6------------------6--6-----|


Chords for Main Riff (Listen to song for rhythm)
e|---3---4---6----8---|---3---4---6---7---|----8---4---6----8---|
B|---4---4---6---10---|---4---4---6---7---|----8---4---6----8---|
G|---5---5---7---10---|---5---5---7---8---|----8---5---7----8---|
D|---5---6---8---10---|---5---6---8---9---|---10---6---8---10---|
A|--------------------|-------------------|---------------------|
E|--------------------|-------------------|---------------------|

e|-----------------------------------|
B|-----------------------------------|
G|--5--5--5--5---4--4--4--4----------|
D|--6--6--6--6---5--5--5--5----------|
A|--6--6--6--6---5--5--5--5----------|
E|--4--4--4--4---3--3--3--3----------|


Chords for Chorus (Listen to song for rhythm...pattern changes)
e|---8----8----8----8-----8----8----8----8---|
B|---9----9----9----9-----8----8----8----8---|
G|--10---10---10---10-----8----8----8----8---|
D|--10---10---10---10----10---10---10---10---|
A|-------------------------------------------|
E|-------------------------------------------|


Riff for "Everytime I think about...."
e|-------5-----------5---------5------5--|
B|-----6---8-------6---8-----4---3----7--|
G|---7---------6/7---------5----------7--| X 2
D|------------------------------------7--|
A|---------------------------------------|
E|---------------------------------------|

[ Tab from: http://www.guitartabs.cc/tabs/n/no_doubt/lets_get_back_tab.html ]
Chords for cool guitar part after middle chorus. (Listen for rhythm)
e|---8---8---8---8----8----8---7/8----8---|--10--10--10--10---8--8---11--10---8----|
B|---9---9---9---9----8----8---7/8----8---|---9---9---9---9---8--8----8---8---8----|
G|--10--10--10--10----8----8---7/8----8---|---8---8---8---8---8--8----8---8---8----|
D|--10--10--10--10---10---10--9/10---10---|--10--10--10--10--10-10---10--10--10----|
A|----------------------------------------|----------------------------------------|
E|----------------------------------------|----------------------------------------|

e|--10--10--10--10---10--10--10----8---9--|---10--10--10--10---10--10--10--10-------|
B|--11--11--11--11---10--10--10----9--10--|---11--11--11--11---10--10--10--10-------|
G|--12--12--12--12---10--10--10---10--11--|---12--12--12--12---10--10--10--10-------|
D|--12--12--12--12---12--12--12---10--11--|---12--12--12--12---12--12--12--12-------|
A|----------------------------------------|-----------------------------------------|
E|----------------------------------------|-----------------------------------------|


During Trumpet Solo
e|-----------------------------------------------------|
B|---------------7--7--7--7---5--5--5--5---7--7--7--7--|
G|--3--3--3--3---7--7--7--7---5--5--5--5---7--7--7--7--| X 2
D|--5--5--5--5---7--7--7--7---5--5--5--5---7--7--7--7--|
A|--5--5--5--5---5--5--5--5---3--3--3--3---5--5--5--5--|
E|--3--3--3--3-----------------------------------------|


Guitar Solo ( ^ = bend)
e|-----------------------------------------------------------------------------|
B|---------------------------------------------------3---3-----3---------------|
G|---7--5--3----3h5--3h5p3------------------------3-----5^7---5^7---5--3h5--3--|
D|------------5------------5--3--5---------3---3-------------------------------|
A|----------------------------------3--3h5---5---------------------------------|
E|-----------------------------------------------------------------------------|

e|-----------------------------------------------------------------------------|
B|--------------18-------18----------------------------------------------------|
G|--17^19^17^19----17^19----17^19--19^17--15----15------17/19--17--18--19------|
D|-------------------------------------------17----17--------------------------|
A|-----------------------------------------------------------------------------|
E|-----------------------------------------------------------------------------|


Chords for "Don't you think I can see..."
e|---3---4---6---10---|       |-----------------------------------| 
B|---4---4---6----8---|       |-----------------------------------|
G|---5---5---7----8---| X 3   |---5---5---5---5----4---4---4---4--|
D|---5---6---8----8---|       |---6---6---6---6----5---5---5---5--|
A|--------------------|       |---6---6---6---6----5---5---5---5--|
E|--------------------|       |---4---4---4---4----3---3---3---3--|


I got most of this from watching a tape of a live show.  I have noticed that the
actual recording on the CD is a little different.  Tom uses a bunch of effects
on the CD....close enough :)

================================================================================
Comments