No Doubt - Just A Girl Chords & Tabs

 

Just A Girl Chords & Tabs

No Doubt Chords & Tabs

Version: 4 Type: Tab 0 ratings
1 star 2 stars 3 stars 4 stars 5 stars
comments

Just A Girl Tab

   
Artist:  No Doubt
Song:    Just a girl
Album:   Tragic Kingdom
Transcribed:  Grant

Intro/Main Riff
E:-----------------------------|
B:-----------------------------|
G:-----------------------------|
D:---7-------------------------|
A:-5------5----5----7----------|
E:----7-7--6-6---5-------------|     

CHORUS:
E:-----------------------------------------------------|
B:-----------------------------------------------------|
G:-----------------------------------------------------|
D:-9-9-9-9-9-9---7-7-7-7-7-7---5-5-5-5-5-7--7-7-7-7-7-7|
A:-9-9-9-9-9-9---7-7-7-7-7-7---5-5-5-5-5-7--7-7-7-7-7-7|
D:-7-7-7-7-7-7---5-5-5-5-5-5---3-3-3-3-3-3--5-5-5-5-5-5|

Repeat
[ Tab from: http://www.guitartabs.cc/tabs/n/no_doubt/just_a_girl_tab_ver_4.html ]
Verse:
E:
B:
G:
D:
A:  5 555555555555555 sl 1010101010101010
E:  3 333333333333333 sl 8 8 8 8 8 8 8 8 

Solo:

E+-----------------------------------------------------
B+-----------------------------------------------------
G+------4--7--6--4-------------------------4--7--6--4--
D+---4--------------4-------------4-----4--------------
A+---------------------7----5--7-----------------------
E+-----------------------------------------------------

E+------------------------
B+------------------------
G+------------------------Repeat
D+---4-------------4------
A+------7----5--7-----2---
E+------------------------

Thats all

This is all correct, it seams like no one knows the main riff that submits this tab.
  So have fun, now that you have the right tabs.
Comments