No Doubt - Its My Life Chords & Tabs

 

Its My Life Chords & Tabs

No Doubt Chords & Tabs

Version: 2 Type: Bass Tab 0 ratings
1 star 2 stars 3 stars 4 stars 5 stars
comments

Its My Life Bass Tab

TALK TALK - IT'S MY LIFE - BASS TAB

G------
D------
A------
E------

Main verse:				     x5

	"Funny how I find myself....."
-----------------------------------------------
--------------------------6---6---6----8-------
6-4-6-----6-4-6-8---8-6-8-------8----8---------
------6----------------------------------------



Sixth time:

	                              "One half won't do...."
------------------------------------------------------------------
--------------------------6---6---6--------------------------0----
6-4-6-----6-4-6-8---8-6-8-------8------7-5-7-7-7-5-------0-2------
------6------------------------------6-------------7-0-2----------



Pre-Chorus:					x2
[ Tab from: http://www.guitartabs.cc/tabs/n/no_doubt/its_my_life_btab_ver_2.html ]
		     "I'll ask myself..."
--------------------------------------------------
------7-5---------------------3---------3-----5---
--5-7-----7-----2-3-3-5---3-5---5-3---3-----5-----
5-----------3-5---------1-----------1-----3-------



Chorus:		       X4

"It's my life..."
-------------------------
-------------------------
--3-5-3-5-5-----3---3-3--
5-----------3-5---5------



(After first chorus only)
-----------
-----------
-----------
1----------


Interlude:
				     x2
---------------------------------------
---------------3-----------------------
1---1----1---1--------1--------1----1--
--4---1----4------1-4---1--1-4----4----


Third time

------------------------------------------
---------------3--------2--2-0------------
1---1----1---1--------1--------2-----0-2--
--4---1----4------1-4------------0-2------



(Return to pre-chorus)

(Chorus)

(Repeat to fade)

This was a Talk Talk song but personally i think no doubt have
made it more powerful and heart felt.
Comments