No Doubt - Hey You Chords & Tabs

 

Hey You Chords & Tabs

No Doubt Chords & Tabs

Version: 1 Type: Bass Tab 0 ratings
1 star 2 stars 3 stars 4 stars 5 stars
comments

Hey You Bass Tab

No Doubt - Hey You
Submitted By: Anjel
EMail: chimchim221@yahoo.com
(G. Stefani / T. Kanal)
Transcribed by Adam Yanalunas 
[ Tab from: http://www.guitartabs.cc/tabs/n/no_doubt/hey_you_btab.html ]
           intro/verse  
G----|-------------------------------------------
D-4:-|-------------------------------------------
A-4:-|--5--5-----------3-----5--5-----------3--4-
E----|--------5--5--5-----5--------5--5--5-------
                       
G-|----------------------------------------
D-|----------------------------------------
A-|----------------------------------------
E-|--3--3--5--3--5--3-----3--3--5--3--5--3-
                        
G-|-----------------------------------------------
D-|-----------------------------------------------
A-|--5--5/17--17--17--17--17--5--5----------------
E-|---------------------------------5--5--5--8--5-
                      
G-|-------------------
D-|-------------------
A-|-------------------
E-|--3--3--3--3--3--3-
                            
   fill one
G-|-------------------
D-|--------2----------
A-|--3--5-----5--3----
E-|-----------------5-
                             
   the end
G-|----------------------
D-|--------3-------------
A-|--3--5-----5--3-----3-
E-|-----------------5----
Comments