No Doubt - Hella Good Chords & Tabs

 

Hella Good Chords & Tabs

No Doubt Chords & Tabs

Version: 6 Type: Tab 0 ratings
1 star 2 stars 3 stars 4 stars 5 stars
comments

Hella Good Tab

When it starts out singing, you wake until she 
rest, and you play this until the intro...

E:-3-3-3-3-3-5--6-6-6-6-6-5--|
B:---------------------------|
G:---------------------------|
D:---------------------------|
A:---------------------------|
E:---------------------------|

Chorous
[ Tab from: http://www.guitartabs.cc/tabs/n/no_doubt/hella_good_tab_ver_6.html ]
E:---------------------------|   |-----------------------------------|
B:---------------------------|   |-----------------------------------|
G:-3-3-3-3-3-3-5----6--6-5---|   |-3-3-3-3-3-3-3-5---6-6-6-6-6-6-5-3-|
D:-3-3-3-3-3-3-5----6--6-5---|   |-3-3-3-3-3-3-3-5---6-6-6-6-6-6-5-3-|
A:-3-3-3-3-3-3-5----6--6-5---|   |-3-3-3-3-3-3-3-5---6-6-6-6-6-6-5-3-|
E:-------------5-------------|   |-3-3-3-3-3-3-3-5---6-6-6-6-6-6-5-3-|

Minor Solo  (easy, yet GAY)
All you play play our these little notes

E:-6~~-5b-3-1-1-1-0~~~~~~---|
B:--------------------------|
G:--------------------------|
D:--------------------------|
A:--------------------------|
E:--------------------------|

Thats it, now I know its hard, so stay up all night
tring to play it good. lol. Now if you have any good
comments, say them!!!!
Comments