No Doubt - Hella Good Chords & Tabs

 

Hella Good Chords & Tabs

No Doubt Chords & Tabs

Version: 2 Type: Tab 1 rating
1 star 2 stars 3 stars 4 stars 5 stars
comments

Hella Good Tab

"Hella Good" - No Doubt

My Rig:
Telecaster
Marshall 50 watt amp
Morley wah wah

My Favourite Bands:
Primus
Clutch
No Doubt

My Favourite guitar websites:
http://www.tabclawer.com    - good tab site
http://www.nodoubt.com   - no doubt's official site
http://www.guitarandbass.co.uk   - brilliant guitar lesson site

Riff 1 - Funk Guitar Sound

E||--10--x-10--x-10--11--------|--11--x-11--x-11--10--------|
B||--8---x-8---x-8---9---------|--9---x-9---x-9---8---------|
G||--7---x-7---x-7---8---------|--8---x-8---x-8---7---------|
D||----------------------------|----------------------------|
A||----------------------------|----------------------------|
E||----------------------------|----------------------------|


Verse 1 - Riff 1

The waves keep on crashing on me for some reason
But your love keeps on coming like a thunderbolt
Come here a little closer
'Cause I wanna see you, baby, real close up
(Get over here) 

Fill 1 - Wah guitar sound 

------------------------|
------------------------|
------------------------|
--5--------5h6h5h3h5----|
------------------------|
------------------------|


Riff 2 (Synth arranged for guitar)

E||------------------------|------------------------|
B||------------------------|------------------------|
G||------------------------|------------------------|
D||------------------------|------------------------|
A||------------------------|------------------------|
E||--3--3-3--3-3--4--------|----4-4--4-4--3-------1-|


                                                                 
------------------------|-------------------------|
------------------------|-------------------------|
------------------------|-------------------------|
------------------------|-------------------------|
------------------------|----2-4--4--2------------|
--3--3-3--3-3--4--------|--4------------4--3------|


Chorus - Riff 2

You've got me feeling hella good 
So let's just keep on dancing
You hold me like you should 
So I'm gonna keep on dancing


Verse - Riff 1

Your performance deserving a standing ovation
And who would have thought it'd be the two of us
So don't wake me if I'm dreaming
'Cause I'm in the mood come on and give it up

Fill 1

Chorus - Riff 2
[ Tab from: http://www.guitartabs.cc/tabs/n/no_doubt/hella_good_tab_ver_2.html ]
You've got me feeling hella good 
So let's just keep on dancing
You hold me like you should 
So I'm gonna keep on dancing
You've got me feeling hella good 
So let's just keep on dancing
You hold me like you should 
So I'm gonna keep on dancing


Guitar Solo Wah Sound

E||--------------------|---------------------------------------|
B||--------------------|---------------------------------------|
G||----------------15--|--17b18r17p15----17--15----------------|
D||--------------------|---------------------------17--17--17--|
A||--------------------|---------------------------------------|
E||--------------------|---------------------------------------|


                                                 
-----------------------------|
-----------------------------|
-----------------------------|
--15-------------------------|  Play twice
-----------------------------|
----------x-x-13h15----13----|


Riff 3 - Synth

|-----------------------|
|-----------------------|
|-----------------------|
|----5-5---5-5----------|
|-----------------------|
|--------------4--------|


                                                                   
-----------------------|-----------------------|
-----------------------|-----------------------|
-----------------------|-----------------------|
----6-6---6-6----------|----5-5---5-5----------|
-----------------------|-----------------------|
--------------3--------|--------------4--------|


                                                  
------------------------------|
------------------------------|
------------------------------|
-----5-5----5-5----6-6----6-6-|
------------------------------|
--3------3------4------4------|


                                
------------------------------||
------------------------------||
------------------------------||
-----5-5----5-5----6-6----6-6-||
------------------------------||
--3------3------4------4------||

Fill

Chorus Riff 2

You've got me feeling hella good 
So let's just keep on dancing
You hold me like you should 
So I'm gonna keep on dancing
You've got me feeling hella good 
So let's just keep on dancing
You hold me like you should 
So I'm gonna keep on dancing

Keep on dancing
Keep on dancing
Comments