No Doubt - Greener Pastures Chords & Tabs

 

Greener Pastures Chords & Tabs

No Doubt Chords & Tabs

Version: 2 Type: Bass Tab 0 ratings
1 star 2 stars 3 stars 4 stars 5 stars
comments

Greener Pastures Bass Tab

No Doubt - Greener Pastures
Submitted By: Anjel
EMail: chimchim221@yahoo.com
(T. Kanal / G. Stefani)
Transcribed by Adam Yanalunas 
[ Tab from: http://www.guitartabs.cc/tabs/n/no_doubt/greener_pastures_btab_ver_2.html ]
      intro (w/ distortion) 
G---|----4--------------4--------------4--------------4----------
D-4-|-------2--------------2--------------2--------------2-------
A-4-|----------3--5-----------3--5-----------3--5-----------3--5-
E---|-0--------------0--------------0--------------0-------------
     main line            
G--|-----------------------------------------------------------------
D--|-----------------------------------------------------------------
A--|-------7--7--5--5--3--3-------------7--7--3--3--5--5-------------
E--|-0--0--------------------5--3-0--0--------------------5--3--0--0-
                               
G--|------------------------------------------------
D--|------------------------------------------------
A--|-------------7--7--7--7--5--5--5--5--3--3--3--3-
E--|-0--0--0--0-------------------------------------
                            
G--|------------------------------------------------
D--|------------------------------------------------
A--|-------------7--7--7--7--3--3--3--3--5--5--5--5-
E--|-0--0--0--0-------------------------------------
                         
G--|------------------------------------
D--|----------------------------3-------
A--|-3-----3-----3-----3--5--6-----6--5-
E--|----3-----3-----3-------------------
                          
G--|-------------------------------------
D--|--------------------------0--1--0----
A--|--0-----0-----0-----0--3-----------3-
E--|-----0-----0-----0-------------------
                            
G--|-------------------------------------
D--|--------------------------1--1--3--3-
A--|--------------0--0--3--3-------------
E--|--1--1--3--3-------------------------
                               
G--|----------------
D--|----------------
A--|--7-----5-----3-
E--|----------------
                          
G--|-----------------------------------------
D--|-----------------------------------------
A--|--7--0--0---0--0--------------------0--3-
E--|------------------3--1--1--1--1--3-------
                                        
G--|-----------------------------|------------------------------
D--|-----------------------------|------------------------------
A--|3--3--------3--3--3--3-------|-0--0--------0--0--0--0-------
E--|------3--3--------------3--3-|-------0--0--------------0--0-
Comments