No Doubt - Greener Pastures Chords & Tabs

 

Greener Pastures Chords & Tabs

No Doubt Chords & Tabs

Version: 1 Type: Bass Tab 0 ratings
1 star 2 stars 3 stars 4 stars 5 stars
comments

Greener Pastures Bass Tab

Greener Pastures

By: No Doubt (Tony Kandal, Gwen Stefani)
Transcribed By: Ronnie Rivera

This is one of my favorite songs by them.

This is the intro.

|------4-------------|-
|---------2----------|-
|------------3--5----|-
|-0------------------|-

Repeat that 8 times.  the first 4 are the intro
and the other 4 are when the other instruments comes in.

|--------------------------|------------------------------|-
|--------------------------|------------------0-0---------|-
|------7-7--5-5--3-3-2-----|-------7-7---3-3-------2------|-
|-0-0-------------------3--|--0-0---------------------3---|-

that goes 2 times, then it goes back to the
begining, then back to this again, THEN it goes into this

|---------------------------------|-----------------------------------|-
|---------------------------------|---------------------------0-0-----|-
|----------------5-5-5-5--3-3-2---|------------------3-3-3-3------2---|-
|0-0-0-0-0-0-0-0----------------3-|-0-0-0-0-0-0-0-0-----------------3-|-

repeat that 2 times. After that, it goes into this.

 - ø

|------------------------------|-
|------------------0--2-3-2----|-
|-3---0---3-----3-----------3--|-
|---3---3----3-----------------|-
[ Tab from: http://www.guitartabs.cc/tabs/n/no_doubt/greener_pastures_btab.html ]
|------------------------------------|-
|--------------------------0---------|-
|-0----------0-------0-2-3---2-------|-
|----0-3-0------0-3------------------|-

Repeat that 2 times, then it goes into this.

|---------------------------------|-
|------------------0-2-3-2-0------|-
|-------0-2-3---3-------------3---|-
|-1-3-----------------------------|-

Repeat that 2 times, then this.

|-0----------------|-
|----3-2-0---------|-
|-------------0--3-|-
|------------------|-

From that last note , slide the note and go back to the intro.
Near the end of the song , (when you are back here again) instead
of going back to the begining, it goes into this.

|------------------------------------------------------------------------------------------------------|-
|-2--------------------------------------2-3-2----2-3-2-------2---3---2--------------------------------|-
|----0--0-0--0-------------------3----3---------3-------3--3--------------0---0-0---0----------------3-|-
|----------------3-1----1-3----3-----3-------------------------------------------------3-1--1-3--3-----|-

After all that, it goes back to " - ø"
And that pretty much it for the song.
Any  Questions, comments, email me at RonGyic@aol.com




Comments