No Doubt - End It On This Chords & Tabs

 

End It On This Chords & Tabs

No Doubt Chords & Tabs

Version: 1 Type: Bass Tab 0 ratings
1 star 2 stars 3 stars 4 stars 5 stars
comments

End It On This Bass Tab

No Doubt - End It On This
Submitted By: Anjel
EMail: chimchim221@yahoo.com
(G. Stefani / T. Dumont / T. Kanal / E. Stefani)
Transcribed by Adam Yanalunas 
          
G---|------------------------------------------------
D-4-|------------------------------------------------
A-4-|-8--8--8--8--8--8--8--8--8--8--8--8--8--8--8--8-
E---|------------------------------------------------
            
G-|-------------------------------------------------
D-|-------------------------------------------------
A-|--5--5--5--5--5--5--5--5--4--4--4--4--4--4--4--4-
E-|-------------------------------------------------
           
G------------------------------------------------
D------------------------------------------------
A-3--3--3--3--3--3--3--3--4--4--4--4--4--4--4--4-
E------------------------------------------------
      
G-|-------------------------------------------------
D-|-------------------------------------------------
A-|--8--8--8--8--8--8--8--8--8--8--8--8--8--8--8--8-
E-|-------------------------------------------------
          
G-|-----------------------------2--3-----3----------
D-|-----------------------------------3-----3--1--0-
A-|-------------------------------------------------
E-|--1--1--1--1--1--1--1--1--1----------------------
           
G-|-------------------------------------------------
D-|-------------------------------------------------
A-|--5--5--5--5--5--5--5--5--7--7--7--7--7--7--7--7-
E-|-------------------------------------------------
             
G--------------------------------
D--------------------------------
A-10--10--10--10--12--12--12--12-
E--------------------------------
            
G-|-------------------------------------------------
D-|-------------------------------------------------
A-|--5--5--5--5--5--5--5--5--4--4--4--4--4--4--4--4-
E-|-------------------------------------------------
              
G------------------------------------------------
D------------------------------------------------
A-3--3--3--3--3--3--3--3--4--4--4--4--4--4--4--4-
E------------------------------------------------
                                3x  fill one 
G-||----------------------------||--------2--3--2----
D-||*--------------------------*||--3--3-----------3-
A-||*-----------------3--3--3--*||-------------------
E-||---1--1--1--1--1------------||-------------------
                               fill two
G-|--------------------------|--------2--3-------
D-|--------------------------|--3--3--------3--1-
A-|-----------------3--3--3--|-------------------
E-|--1--1--1--1--1-----------|-------------------
   fill three     fill four            fill five
G-|--------------|--------2-----------|-----2h3----------
D-|--------------|--3--3-----3--1-----|--3-------1--3----
A-|--1--1--3--3--|-----------------3--|----------------3-
E-|--------------|--------------------|------------------
                       
G-|----------------------------------
D-|----------------------------------
A-|-----5-----------------5----------
E-|--6-----3--3--1-----6-----3--3--1-
       
G-|--------------------------2h3----------
D-|-----3--3--3--3--3--3--3-------3--1----
A-|-------------------------------------3-
E-|--1------------------------------------
           
G-|-----------------------------------------------
D-|-----------------------------------------------
A-|--5-----5--4-----4--3-----3--4-----4--5-----5--
E-|-----5--------4--------3--------4--------5-----
           
G---------------------------
D---------------------------
A-7-----7--8-----8--7-----7-
E----7--------8--------7----
[ Tab from: http://www.guitartabs.cc/tabs/n/no_doubt/end_it_on_this_btab.html ]
Comments