No Doubt - Dont Speak Chords & Tabs

 

Dont Speak Chords & Tabs

No Doubt Chords & Tabs

Version: 5 Type: Tab 0 ratings
1 star 2 stars 3 stars 4 stars 5 stars
comments

Dont Speak Tab

----------------------------------------------------------------------------
			     Don't Speak Solo - No Doubt
----------------------------------------------------------------------------
Tabbed by: Simo
Email: sasasas@jippii.fi

Tuning: Standard

e|----------------------------------------|
B|------6-8-6--------------/8-6-8---------|
G|--5-8-------7-------5-8-----------------|
D|--------------8-5-6---------------------|
A|----------------------------------------|
E|----------------------------------------|
[ Tab from: http://www.guitartabs.cc/tabs/n/no_doubt/dont_speak_tab_ver_5.html ]
e|------------------------------------------|
B|------6-8-6----------8-9-8-/11--\9-8------|
G|--5-8-------7-----------------------10----|
D|--------------8-5-6-----------------------|
A|------------------------------------------|
E|------------------------------------------|

e|--8-10-11-10---8----8-------------------------------|
B|-----------------11---8-11----8------8-9-11--9--8---|
G|---------------------------10---8-10----------------|
D|----------------------------------------------------|
A|----------------------------------------------------|
E|----------------------------------------------------|

e|----------------------------------------|
B|----------------------------------------|
G|------------------1-3-5-3-1-------------|
D|------1-3-4-1-3-4-----------5-----------|
A|--3/4-----------------------------------|
E|----------------------------------------|


This is correct.
Comments