No Doubt - Dont Speak Chords & Tabs

 

Dont Speak Chords & Tabs

No Doubt Chords & Tabs

Version: 4 Type: Tab 0 ratings
1 star 2 stars 3 stars 4 stars 5 stars
comments

Dont Speak Tab

No Doubt
Don΄t speak
Tabbed by A.C.L.(tlosapro@aol.com)

Intro/verse
e)----------------------------|---------------------------|
B)----4-----4-----4-----4-----|---4-----4-----4-----4-----|
G)----5-----5-----5-----5-----|---5-----5-----5-----5-----|
D)-------5-----5-----5-----5--|------5-----5-----5-----5--|
A)----------------------------|---------------------------|
E)----------------------------|---------------------------|

e)------------------|------------------|------------------|
B)--4---4---4---4---|--3---3---1---1---|--3---3---3---3---|
G)--5---5---5---5---|--3---3---1---1---|--3---3---3---3---|
D)----5---5---5---5-|----5---5---3---3-|----3---3---5---5-|
A)------------------|------------------|------------------|
E)------------------|------------------|------------------|

e)------------------|------------------|------------------|
B)--1---1---3---3---|--4---4---3---3---|--1---1---3---3---|
G)--1---1---3---3---|--5---5---3---3---|--1---1---3---3---|
D)----3---3---3---3-|----5---5---5---5-|----3---3---3---3-|
A)------------------|------------------|------------------|
E)------------------|------------------|------------------|

e)------------------|------------------|------------------|
B)--3---3---4---4---|--1---1---3---3---|--4---4---3---3---|
G)--3---3---5---5---|--1---1---3---3---|--5---5---3---3---|
D)----5---5---5---5-|----3---3---3---3-|----5---5---5---5-|
A)------------------|------------------|------------------|
E)—---—--—----------|------------------|------------------|

e)------------------|------------------|---8------|
B)--1---1---3---3---|--8---8---6---6---|---8------|
G)--1---1---3---3---|--8---8---7---7---|---9------|
D)----3---3---3---3-|----8---8---8---8-|--10------|
A)------------------|------------------|--10------|
E)—---—--—----------|------------------|----------|
[ Tab from: http://www.guitartabs.cc/tabs/n/no_doubt/dont_speak_tab_ver_4.html ]
Riff 2
e)------------------|------------------|------------------|
B)--4---4---4---4---|--3---3---1---1---|--3---3---3---3---|
G)--5---5---5---5---|--3---3---1---1---|--3---3---3---3---|
D)----5---5---5---5-|----5---5---3---3-|----3---3---5---5-|
A)------------------|------------------|------------------|
E)------------------|------------------|------------------|

e)------------------|------------------|------------------|
B)--1---1---3---3---|------------------|------------------|
G)--1---1---3---3---|------------------|------------------|
D)----3---3---3---3-|--5---------------|--3---------------|
A)------------------|--3---------5-----|--3----------1----|
E)—---—--—----------|------------3-----|-------------1----|

e)------------------|------------------------|
B)------------------|------------------------|
G)------------------|------------------------|
D)---8--------------|------------------------|
A)---6--------8-----|--10--10--10-10-10-10---|
E)—-----------6--—--|---8---8---8--8--8--8---|

Solo
e)----------------------------|-------------------------|
B)----------8-----------------|------------7/8------8---|
G)-----8-10---10---7----------|------5-8--------10------|
D)--10-----------------8---5--|---6---------------------|
A)----------------------------|-------------------------|
E)---—--—---------------------|-------------------------|

e)----------------------------|-------------------------|
B)----------8-----------------|------8-9-8h9-11-9p8-----|
G)-----8-10---10---7----------|---------------------10--|
D)--10-----------------8---5--|---6---------------------|
A)----------------------------|-------------------------|
E)—---—--—--------------------|-------------------------|

e)--8-10—11h10p11-8-10-8------|-------------------------|
B)--8--------------------8-11-|----8----8-9-11—9h11p9-8-|
G)--8-------------------------|-10-8-10-----------------|
D)----------------------------|-------------------------|
A)----------------------------|-------------------------|
E)—---—--—--------------------|-------------------------|

e)----------------------------|-------------------------|
B)----------------------------|-------------------------|
G)-------------------3-5-3----|-------------------------|
D)--------3-5--3-5-6-------6--|--5h6p5------------------|
A)--3/5-6----6----------------|-------------------------|
E)—---—--—--------------------|-------------------------|
Comments