No Doubt - Dont Speak Chords & Tabs

 

Dont Speak Chords & Tabs

No Doubt Chords & Tabs

Version: 3 Type: Tab 0 ratings
1 star 2 stars 3 stars 4 stars 5 stars
comments

Dont Speak Tab

I've seen this tab a million times, but I've never seen an accurate one-so here
you go (Trust me, this is a first!) Just copy/paste the text and re-size it on a
blank document to make it legible-sorry about the inconvenience

No Doubt
DON'T SPEAK



Intro (No Vocals)
|---------------------------------------|e
|---------------------------------------|B
|---------------------------------------|G
|-2---2-----2---2-----2---2-----2---2---|D
|-3---3-----3---3-----3---3-----3---3---|A
|---3---3-----3---3-----3---3-----3---3-|E

you and me, we used to be together-everyday together-always
|-------------------------------------------------------------|e
|-------------------------------------------------------------|B
|---0-------------------0-(0)-------0-------0-(0)-----0-(0)---|G
|-3----3------0-3--3--2-----------3----3--2-----------------3-|D
|----------0-------------------3-------------------3----------|A
|-------------------------------------------------------------|E

I really feel that I'm Losing my best friend I can't believe this could be the end
|--------------------------------------------------------------------------|e
|--------------------------------------------------------------------------|B
|------0------------------0----0--(0)----------0-------0-(0)-----0--(0)----|G
|----3----3--2-0-------3---------------------3----3--2-------------------3-|D
|-0---------------2-2--------3--------3---0-------------------3------------|A
|--------------------------------------------------------------------------|E

It Looks as though you're letting go and if it's real well I don't want to know
|--------------------------------------------------------------------------|e
|----------------0-(0)--1--------------------------------------------------|B
|---------0-(0)-----------0-----------0-0-0--(0)-0-------------------------|G
|-2--3--2-------------------3-(3)------------------3--(3)-0--------3-2-(2)-|D
|----------------------------------2------------------------3--(3)---------|A
|--------------------------------------------------------------------------|E

Chorus
Don't Speak, I know just what you're saying  so please stop explaining
|---------------------------------------------------------------|e
|---------------------------------------------------------------|B
|---2-------------0--(0)---2--(2)-0-----------0--(0)---0--(0)---|G
|-3------0--(0)-3--------3------------------2--------3--------3-|D
|------3-----------------------------3--(3)---------------------|A
|---------------------------------------------------------------|E

Don't Tell Me 'Cause it hurts   no no no Don't Speak I Know what you're thinking
|-----------------------------------------------------------------------|e
|-----------------------------------------------------------------------|B
|--------0--(0)---3-(3)-------------------0----2------0--(0)---2--(2)-0-|G
|------2--------2-----------0--(0)-3--(3)----3----0-3--------3----------|D
|-2--3--------------------3---------------------------------------------|A
|-----------------------------------------------------------------------|E
[ Tab from: http://www.guitartabs.cc/tabs/n/no_doubt/dont_speak_tab_ver_3.html ]
I don't need your reasons  Don't Tell me cause it hurts  Our Memories
|--------------------------------------------------------------|e
|------------------------1--1-0-0--(0)-------------------------|B
|-----0--(0)-2-0--(0)-2----------------2-2-(2)--------0--------|G
|---2--------------------------------------------2--3---3--(3)-|D
|-3------------------------------------------------------------|A
|--------------------------------------------------------------|E

They can be inviting, but some are altogether mighty frightning
|--------------------------------------------------------------|e
|--------------------------------------------------------------|B
|---0-------0--(0)-------------------------0--(0)----0--(0)----|G
|-3----3--2----------------------3-3--3--2-------------------3-|D
|------------------3--(3)-0-3-2-------------------3------------|A
|--------------------------------------------------------------|E

It's all ending  I gotta stop pretending   who we are
|-------------------------------------------------|e
|----3-0--(0)-------------------------------------|B
|-2-----------2--(2)-0-0----0--0-2--(2)-0---------|G
|------------------------3-----------------2-0--2-|D
|-------------------------------------------------|A
|-------------------------------------------------|E



Instrumental Solo  (About 2 Lines)


You and me, I can see us dying... are____ we?______
|---------------------------------------------|e
|---------------------------------------------|B
|---0---------------0--(0)--------0-----------|G
|-3----3--3-3--3--2------------3-----3---(3)--|D
|--------------------------3------------------|A
|---------------------------------------------|E

Chorus II
Don't Speak, I know just what you're saying-so please stop explaining
|-------------------------------------------------------------------|e
|-(1)---------------------------------------------------------------|B
|-------2-------------0--(0)---2--(2)-0-----------0--(0)-2-0--(0)-2-|G
|-----3------0--(0)-3--------3------------------2-------------------|D
|----------3-----------------------------3--(3)---------------------|A
|-------------------------------------------------------------------|E

Don't tell me cause it hurts  no no don't speak  I know what you're think+
|-------------------------------------------------------------------------------|e
|-1--1-0-0--(0)-----------1--(1)-0----------1--(1)-0--------0--(0)-0-0--(0)---1-|B
|---------------2-2-(2)------------2--(2)-0----------2--(2)-----------------2---|G
|-------------------------------------------------------------------------------|D
|-------------------------------------------------------------------------------|A
|-------------------------------------------------------------------------------|E

"ing" and I don't need your reasons  Don't tell me cause it hurts ..cause it hurts
|-------------------------------------------------------------------------------|e
|-(1)-0------------------------------1--1-0-0--(0)----------1--1-0-0--(0)---1-(1|B
|---------2--0-0-0--(0)-2-0--(0)-2-----------------2-2-(2)----------------2-----|G
|-------------------------------------------------------------------------------|D
|-------------------------------------------------------------------------------|A
|-------------------------------------------------------------------------------|E
Comments