No Doubt - Dont Speak Chords & Tabs

 

Dont Speak Chords & Tabs

No Doubt Chords & Tabs

Version: 2 Type: Bass Tab 0 ratings
1 star 2 stars 3 stars 4 stars 5 stars
comments

Dont Speak Bass Tab

                       NO DOUBT DON'T SPEAK

 Wait for the guitar and singing to start and then:

Intro
G---------------------------------------------------------------------|
D---------------1--1--------------------------------------------------|
A--------1--1----------3--3---1--1----3-3--------------------1---3----|
E--1--1----------------------------------------1---1------------------|

G-----------------------------------------------------------------------|
D-----------------1--1--------------------------------------------------|
A----------1--1---------3--3--1--1--3-3------------------------4--6-----|
E---1--1--------------------------------------1---1---------------------|

Verse
G---------------------------------|
D---------------------------------|
A-----3--------------1--------1---|
E--------------3---1----3---1-----|

G--------------------------------------------------------------------|
D-----------------------------------1-1------------------------------|
A---3-3------------------1-1-1----------1-1-1-----3---3-3-3---3-3----|
E---------3-3-3---1-1------------------------------------------------|
				            [these are the hits]

[ Tab from: http://www.guitartabs.cc/tabs/n/no_doubt/dont_speak_btab_ver_2.html ]
Chorus
G----------------------------------=------------------------------------|
D--------1-1-----------------------=------1-1---------------3--1--------|
A-----1-1----3-3--1-1--3-3-----1-3-=---1-1----3-3--1-1--3-3------3------|
E--1-1---------------------1-1-----=1-1-----------------------------4---|

Bridge
G---------------------------------------------------------------------|
D---------------------------------------------------------------------|
A--4---3---2---1-----------0---4---6--------4--6-6-6------------------|
E------------------------------------------------------------4--------|
               [---------these are the hits---------------------------|

Instrumental (guitar solo)
G--------------------------------------|
D--------------------------------------|
A---3-3----------------1-1-1-----------| (x 3)
E---------3-3-3--1-1-------------------|

Then on the fourth time
G--------------------------------------------------------------------|
D--------------------------------------------------------------------|
A-----3-3-3-----------------------------------------1-1-1-1-1-1-1-1--|(Getting louder)
E-3---------1--hold------------------1-1-1-1-1-1-1-1-----------------|
        ---2 bars rest then------------------------------------------|


 I think the tabliture is perfectly right!!!
If there are some mistakes write to:  a_guitar@abv.bg

                         THANK YOU !!!!!!
Comments