No Doubt - Dont Speak Chords & Tabs

 

Dont Speak Chords & Tabs

No Doubt Chords & Tabs

Version: 1 Type: Bass Tab 0 ratings
1 star 2 stars 3 stars 4 stars 5 stars
comments

Dont Speak Bass Tab

Date: Wed, 13 Aug 1997 13:03:17 +0800 (PST)
From: "Alain Bjorn M. Paje" <9610839@ignacio.cs.xu.edu.ph>
To: bass@olga.net
Subject: TAB: Don't Speak



Artist: No Doubt
Album: Tragic Kingdom
Song: Don't Speak
Subject: Bass Tablature
Transcribed by: Alain Bjorn M. Paje -> e-mail: 9610839@ignacio.cs.xu.edu.ph

    This is a great song by No Doubt. Tony Kanal is an exceptional bassist
 with his unique bass-playing style. I think this tab is perfect though
 I did'nt bother to write the variations in the ending.
    Anyway, if you have any comments or suggestions, please e-mail me.
 Have fun and hop you'll like it

  Symbols:
        /  - slide up
        p  - pull or pop

No bass lines until refrain


  Refrain 1                   Chorus 1

G|--------------------------|-----------------------3-3-3-3-------------------
D|-----------0-1------------|---------------------1---------------------------
A|-3-----0-1-----0-1-1-3/8--|------3-3-3-3-3-1-1-------------1-2-3-3---3-2-1--
E|---3-1--------------------|---1---------------1-------------------3---------

G|-------------------------------------------------------------3-3-3-3--------
D|-3-3-3-------5-5-5-5---------------------------------------1----------------
A|-------1-2-3---------------3-4-3---3-------3-3-3-3-3-1-1--------------------
E|---------------------1-3-4-------4---4-3-1---------------1------------------

                                                             Verse 2

G|--------------------------------------------------------|-------------------|
D|-----------------3-3-3-3-------5-5-5-5------------------|-------------------|
A|-1-2-3-3---3-2-1---------1-2-3-----------3-3-3-3-3-4-6--|-3-----1-----1/8---|
E|---------3-----------------------------1----------------|-----3-1---3-1-----|

    Refrain 2

G|----3p5---------------------------------2-3-0-------------------------------
D|------------------------3-3-1-0---------------1-1-------0-3-5-3-------------
A|--3-------------3-5-3-5---------3-1-1-1-------------0-1---------5--3-3-3-3--
E|--------0-3-3-3-----------------------------------3-------------------------

          Chorus 2
[ Tab from: http://www.guitartabs.cc/tabs/n/no_doubt/dont_speak_btab.html ]
G|------|----------------------3-3-3-3-3--------------------------------------
D|------|--------------------1----------------------------3-3-3-------5-5-5-5-
A|-3/10-|----3-3-3-3-3-1-1---------------1-2-3-3---3-2-1--------1-2-3---------
E|------|--1---------------1---------------------3----------------------------

G|-----------------------------------------3-3-3------------------------------
D|-5-------------------------------------1-----------------------3-3-3--------
A|---------3-4-3---3-------3-3-3-3-1-1-----------1-2-3-3---3-2-1-------1-2-3--
E|---1-3-4-------4---4-3-1-------------1-----------------3--------------------

             Bridge

G|---------|--------------------------------------------------------|
D|-5-5-5-5-|-3------------------------------------------------------|
A|---------|---6-3---4-4-3-3-4-6-4-3-0-2-2-1-1---4-6-4-6-6-6--------|
E|---------|-------4---------------------------5--------------4/12--|

    Guitar Solo

G|------------------------------------------------------------------------------
D|----------5-5----------------------------------5-5-----5----------------------
A|---3--3-5------------------1-1-0-1-3-3--3--3-5-------5-----------1-1-1-3-5-3--
E|--------------3---1-1--1-3-------------------------3-----1-1-1-3--------------

                                                   before chorus

G|----------------------------------------------|-------------------------------
D|----------5-5-----5-3-3-----------------------|-------------------------------
A|---3--3-5-------5---------0-1------1-3--------|------------------1-1-1-1-1-1--
E|--------------3---------3------1-3-----4-3-1--|--1-1-1-1-1-1-1-1--------------

           Chorus till ending ... (many variations i didn't bother to write)

G|------|---------------------3-3-3---------------------------------------------
D|------|-------------------1-----------------------3-3-3-------5-5-5-5---------
A|-1-1--|---3-3-3-3-3-1-1-----------1-2-3-3---3-2-1-------1-2-3-----------------
E|------|-1---------------1-----------------3-----------------------------------

G|--------------------------|
D|--------------------------|
A|--------3-4-3---3---------|
E|--1-3-4-------4---4-3-1---|


Comments