No Doubt - Dont Let Me Down Chords & Tabs

 

Dont Let Me Down Chords & Tabs

No Doubt Chords & Tabs

Version: 1 Type: Tab 0 ratings
1 star 2 stars 3 stars 4 stars 5 stars
comments

Dont Let Me Down Tab

   
NO DOUBT
DON'T LET ME DOWN
ROCK STEADY


the chords of the song are:

c - f - a - d - g



the solo is:


-5/7-8--10/8-5--8/10--12--13/12--10--5/7-8-
---------------------------------------------
---------------------------------------------
---------------------------------------------
---------------------------------------------
---------------------------------------------
[ Tab from: http://www.guitartabs.cc/tabs/n/no_doubt/dont_let_me_down_tab.html ]
-7/8/7-5--8/10--12--13/12--10--5/7-8-3-0-5-1-
-----------------------------------------------
-----------------------------------------------
-----------------------------------------------
-----------------------------------------------
-----------------------------------------------

---5-1------8-3-0-0/1-0-----------------------
-1-----1-----------------5/3-1-1-3-5----------
---------2----------------------------2--------
-----------------------------------------------
-----------------------------------------------
-------------------------------------------------

 that's it, very easy song
comments or anything to meli_ob@hotmail.com

NO DOUBT KICKS ASS!!!!!!!!!!!!!
Comments