No Doubt - Doghouse Chords & Tabs

 

Doghouse Chords & Tabs

No Doubt Chords & Tabs

Version: 1 Type: Tab 0 ratings
1 star 2 stars 3 stars 4 stars 5 stars
comments

Doghouse Tab

Intro: 
E|-------------------0-----0-----|---2-----2-----2---0-----0-----| 
B|-4-----4-----4---0-----0---0---|-----0-----0---------0-----0---| 
G|---4-----4-----0-----0-------0-|-2-----2-----2---0-----0-----0-| 
D|-----4-----4-------------------|-------------------------------| 
A|-------------------------------|-------------------------------| 
E|-------------------------------|-------------------------------| 

(wah effect) 

E|-------------------------------| 
B|-------------------------------| 
G|-7---7---6---6---7---7---6---6-| 
D|-9---9---6---6---9---9---6---6-| 
A|-------------------------------| 
E|-------------------------------| 

Verse (wah effect): 

E|-7---7-------------------------| 
B|-7---7---9---9---7---7---9---9-| 
G|-7---7---10--10--7---7---10--10| 
D|---------9---9---9---9---9---9-| 
A|-------------------------------| 
E|-------------------------------| 

You're just a doggy..: 

E|-----------------------------|--------------------------| 
B|-----------------------------|--------------------------| 
G|-----------------------------|--------------------------| 
D|-----9-----------------------|--------------------------| 
A|-9-9-7---10-10-9-10-10-10-11-|-12-12--12---9---10---12--| 
E|-7-7-----8--8--7-8--8--8--9--|-10-10--10---7---8----10--| 

Fill in: 

E|---------10-7--------------9-10-9-9\--| 
B|-------7-----------------9--------9\--| 
G|---7-9--------7-------10--------------| 
D|-9--------------9-/11-----------------| 
A|--------------------------------------| 
E|--------------------------------------| 
[ Tab from: http://www.guitartabs.cc/tabs/n/no_doubt/doghouse_tab.html ]
                              _____________ ___________________ 
                              |     1     |         2         | 
E|--------10-7--------------9-|-11b-10-7\-| -12-10h12p10-9-7\-| 
B|------7-----------------9---|--------7\-| ---------------7\-| 
G|----7--------7-------10-----|-----------| ------------------| 
D|-/9------------9-/11--------|-----------| ------------------| 
A|----------------------------|-----------| ------------------| 
E|----------------------------|-----------| ------------------| 

Can you hear her calling..: 

E|-------------------------------| 
B|-------------------------------| 
G|-14---13---12---12b-r----11----| 
D|-------------------------------| 
A|-------------------------------| 
E|-------------------------------| 

part after '..before she calls you home': 

E|-7\---7-9\-----10\--10-9\------| 
B|-7\---7-9\-----10\--10-9\------| 
G|-7\---7-10\----11\--11-10\-----| 
D|-------------------------------| 
A|-------------------------------| 
E|-------------------------------| 

You're in the Doghouse: (fading out) 

E|----------12-14-12-------------------------------| 
B|-12-14-15----------15-14-12-\7-\3-\2-/3-/5-/7-/9-| 
G|-------------------------------------------------| 
D|-------------------------------------------------| 
A|-------------------------------------------------| 
E|-------------------------------------------------| 

E|------------------------| 
B|-/10-\9-\7-\5-\3-/5-/7--| 
G|------------------------| 
D|------------------------| 
A|------------------------| 
E|------------------------| 
 
Comments