No Doubt - Comforting Lie Chords & Tabs

 

Comforting Lie Chords & Tabs

No Doubt Chords & Tabs

Version: 2 Type: Bass Tab 0 ratings
1 star 2 stars 3 stars 4 stars 5 stars
comments

Comforting Lie Bass Tab

Bass tab:
Band: No doubt
Album: Return of saturn
Track: 10 - Comforting lie
Person who tabbed this: Paul Simpson (paul_the_bass_guy@hotmail.com)


Before I tabbed this I thought it would be a pretty hard song to play
but yeah, it's actually extremely easy compared with most other No
Doubt songs.

Key:
h = hammer on
\ = slide down
/ = slide up

INTRO:

A-------------------------------------------------
E--5-5-5-----0-0-----5-5-5----0-0-----5-5-5----0-0    e.t.c

VERSE:

A----------------------------------------------------------------
E--5-5-5----0-0-----5-5-5----0-0----5-5-5------0-0----1-1-1---0-0 e.t.c


CHORUS:
[ Tab from: http://www.guitartabs.cc/tabs/n/no_doubt/comforting_lie_btab_ver_2.html ]
	     Hold it, hold it all in, let it build up,oh build a bomb
A-----------------------5--7---------5--7---------5--7--8--8--8--7--
E--0h12\5/-12\-5--5--5-------5--5--5------5--5--5------------------8
(X2)

A--------------7---
E--10--8---7-------

then play verse riff twice, then chorus again


INTERLUDE:

Oh look i took my bandaid off did i take it off to soon?
A--------------------------7------------------------0
E--10------8------7-----------------10-------8-------

Hysterical confession, my big courageous move
A---------------7----------------------------
E--10--8---7---------------10-----8-------10-

Then play intro again, then play verse, then chorus but for twice
as long as normal. Then, to finish play the verse riff once but it
gets slower and slower.

Alright then, have fun with this, it's a pretty cool song i think.
If you have any queries, please e-mail me -
paul_the_bass_guy@hotmail.com

ok see ya :)

Comments