No Doubt - By The Way Chords & Tabs

 

By The Way Chords & Tabs

No Doubt Chords & Tabs

Version: 1 Type: Tab 0 ratings
1 star 2 stars 3 stars 4 stars 5 stars
comments

By The Way Tab

|     2x     | 
E|-2---4---4--| 
B|-2---4---5--| 
G|-3---5---6--| 
D|-4---4---6--| 
A|-4---6---4--| 
E|-2--/4------| 

Verse: 

E|--4-------2-------4--4--4------|-4---7---2-------4--4--4-------| 
B|--5---4---2-------4--4--4----4-|-5---7---2-------4--4--4-------| 
G|--6---4---3---5---5--5--5----4-|-6---8---3---5---5--5--5-------| 
D|--6---4---4---4---4--4--4------|-6---9---4---4---4--4--4-------| 
A|--4---2---4---6----------------|-4---9---4---6-----------------| 
E|----------2---4----------------|-----7---2---4-----------------| 

E|-----2--2--2-------2--2--2-----|-5---7---4---| 
B|-----2--2--2-------2--2--5-----|-5---7---5---| 
G|-3---3--3--3---2---2--2--2-----|-6---8---6---| 
D|-2-------------2---------------|-7---9---6---| 
A|-4-------------4---------------|-7---9---4---| 
E|-2-------------2---------------|-5---7-------| 

independent, spanish speaking...: 

                                     _____________________________ 
                                     |    1    |       2         | 
E|-----2--2--2-------2--2--2-----|-5---7---4---|--4--4---2--4--4-| 
B|-----2--2--2-------2--2--5-----|-5---7---4---|--4--5---2--4--5-| 
G|-3---3--3--3---2---2--2--2-----|-6---8---5---|--4--6---3--5--6-| 
D|-2-------------2---------------|-7---9---4---|--6--6---4--4--6-| 
A|-4-------------4---------------|-7---9---6---|--6--4---4--6--4-| 
E|-2-------------2---------------|-5---7---4---|--4------2--4----| 

And she kissed him...: 
[ Tab from: http://www.guitartabs.cc/tabs/n/no_doubt/by_the_way_tab.html ]
E|-4--2---0-----4---5--7---4---| 
B|-5--2---0-----4---5--7---5---| 
G|-6--2---1-----4---6--8---6---| 
D|-6--4---2-----6---7--9---6---| 
A|-4--4---2-----6---7--9---4---| 
E|----2---0-----4---5--7-------| 

Fill ins (chorus) 

E|---------|-------------|-----------------| 
B|---------|-------------|-----------------| 
G|-9-8-6---|----9-8-6----|--9--------/11---| 
D|-------8-|-7h9------7--|----9h7----/9----| 
A|-------9-|-------------|--------7--/9----| 
E|---------|-------------|-----------------| 

Solo: 

E|-------------------------------|--------------4--------| 
B|-/2-4-/5-----/4-2--------------|-/5-4-4h5p4---5--------| 
G|------------------4-/3---------|------------6----------| 
D|-----------------------6-4-/6--|-----------------------| 
A|-------------------------------|-----------------------| 
E|-------------------------------|-----------------------| 

E|-------------------------------|-4-----4---------------| 
B|-/9-7----------7-7\4---\2--\1--|-5--4--4h5-------------| 
G|------9-8----9-----------------|-6-----6---------------| 
D|-------------------------------|-----------------------| 
A|-------------------------------|-----------------------| 
E|-------------------------------|-----------------------| 

E|-------------------------------|-----------------------| 
B|----------------------9--------|-12br----10-12----10---| 
G|----8-9-11b--r11-9-11---11-9---|------11-------11------| 
D|-11--------------------------11|-----------------------| 
A|-------------------------------|-----------------------| 
E|-------------------------------|-----------------------| 

E|-------------------------------| 
B|-------------------------------| 
G|-8h9p8------------8------------| 
D|-------9-----9--------------11-| 
A|---------9----------9-9-/11----| 
E|-------------------------------| 
Comments