No Doubt - Bnd Chords & Tabs

 

Bnd Chords & Tabs

No Doubt Chords & Tabs

Version: 1 Type: Tab 0 ratings
1 star 2 stars 3 stars 4 stars 5 stars
comments

Bnd Tab

e|--------------------| 
B|------10--10--------| 
G|--9---10--10---9----| X 4 
D|-10---10--10--10----| 
A|-10----8---8--10----| 
E|--8------------8----| 

You really need to listen to the CD for this part...but I think the rhythm is right. 

           u d u d      u  d u  d           u   d u d  u   u   d   u  d 
e|---------8-x-x-7/-8---8--x-x--8--|--------8--x----x--------------8--8--| 
B|---------8-x-x-7/-8---8--x-x--8--|--------8--x--8-x-11--11--10---8--8--| 
G|-----9---9-x-x-8/-9---9--x-x--9--|----9---9--x--9-x--9---9---9---9--9--| X 4 
D|--10----10-x-x-9/10--10--x-x-10--|-10----10--x-10-x-10--10--10--10-10--| 
A|---------------------------------|-------------------------------------| 
E|---------------------------------|-------------------------------------| 

This riff starts during the end of the last measure above. 
[ Tab from: http://www.guitartabs.cc/tabs/n/no_doubt/bnd_tab.html ]
e|-------------------------| |--------------------------------------| 
B|-------------------------| |--------------------------------------| 
G|--5----------------------| |--4-4-4-4--5-5-5-5--7-7-7-7--8-8-8-8--| X 2 
D|-----8--5--4-------------| |--5-5-5-5--6-6-6-6--8-8-8-8--9-9-9-9--| 
A|--------------8--6-------| |--5-5-5-5--6-6-6-6--8-8-8-8--9-9-9-9--| 
E|--------------------8----| |--3-3-3-3--4-4-4-4--6-6-6-6--7-7-7-7--| 

e|---------------------------------------------------- 
B|--------------10-10-10-10---------------10-10-10-10- 
G|--9--9--9--9--10-10-10-10---9--9--9--9--10-10-10-10- 
D|-10-10-10-10--10-10-10-10--10-10-10-10--10-10-10-10- 
A|-10-10-10-10---8--8--8--8--10-10-10-10---8--8--8--8- 
E|--8--8--8--8----------------8--8--8--8-------------- 

e|----------------------------------| 
B|--------10-10---------10-10-------| 
G|--9--9--10-10---9--9--10-10---9---| 
D|-10-10--10-10--10-10--10-10--10---| 
A|-10-10---8--8--10-10---8--8--10---| 
E|--8--8----------8--8----------8---| 


Comments