No Disrespection - Allegence To Freedom Chords & Tabs

 

Allegence To Freedom Chords & Tabs

No Disrespection Chords & Tabs

Version: 2 Type: Tab 0 ratings
1 star 2 stars 3 stars 4 stars 5 stars
comments

Allegence To Freedom Tab

artist-no disrespection
song-allegence to freedom



intro1

[]-------------------------------------------------------------------|
[]-0h-3p--0h-3p--0h-3p--3-2----------x5------------------------------|
[]-------------------------------------------------------------------|
[]-------------------------------------------------------------------|
[]-------------------------------------------------------------------|
[]-------------------------------------------------------------------|

intro 2

[]-------------------------------------------------------------------|
[]-------------------------------------------------------------------|
[]-------------------------------------------------------------------|
[]---3>4---x8------------------3>9-x1--------------------------------|
[]-------------------------------------------------------------------|
[]-------------------------------------------------------------------|


intro 3

[]-------------------------------------------------------------------|
[]-------------------------------------------------------------------|
[]-------------------------------------------------------------------|
[]-------------------------------------------------------------------|
[]--7-5--7-5--7-5--3-4--7-5--7-5--7-5--3-4--6-----x4-----------------|
[]-------------------------------------------------------------------|

intro 4

[]------------------------------------------------------------------|
[]------------------------------------------------------------------|
[]------------------------------------------------------------------|
[]-------7---7------7------5-----5---------------5------------------|
[]-------x---x------x------x-----x---------------x------------------|
[]-------5---5------5------3-----3---------------3------------------|


verse
[ Tab from: http://www.guitartabs.cc/tabs/n/no_disrespection/allegence_to_freedom_tab_ver_2.html ]
[]-----------------------------------------------------------------|
[]-----------------------------------------------------------------|
[]-----------------------------------------------------------------|
[]-----------------------------------------------------------------|
[]--4-4-4-4---4-4-4-----0-0-0-0---0-0-0----7-7-7-7-7-7-7-7-7-7-7-7-|
[]-----------------------------------------------------------------|
pm.................................................................


pre chorus

[]------------------------------------------------------------------|
[]------------------------------------------------------------------|
[]------------------------------------------------------------------|
[]--7-----9-----5-----------7-7-7-7-7-7-7-7-------------------------|
[]--5-----7-----3------------^ played low---------------------------|
[]------------------------------------------------------------------|

chorus

[]---------------------------------------------------------------------|
[]---------------------------------------------------------------------|
[]------------------------------------7-7-7-7-7-7-7-7--9-9-9-9-9-9-9-9-|
[]-5-5-5-5-5-5-5-5---7-7-7-7-7-7-7-7--7-7-7-7-7-7-7-7--9-9-9-9-9-9-9-9-|
[]-3-3-3-3-3-3-3-3---5-5-5-5-5-5-5-5--5-5-5-5-5-5-5-5--7-7-7-7-7-7-7-7-|
[]---------------------------------------------------------------------|

solo


[]--------------------------------------------------------------------|
[]--------------------------------------------------------------------|
[]---0h-4p---0h-4p--0h-4p--4>9---7-7-7-7-7-7-7-7---7-7-7--6-6--7-7-7--|
[]-------------------------------0-0-0-0-0-0-0-0---0-0-0--0-0--0-0-0--|
[]------------------------------------------------------x5------------|
[]--------------------------------------------------------------------|


ending just play the chorus

order:
intro 1
intro 2
intro 3
intro 4
verse
pre chorus
chorus
intro 4
verse
pre chorus
chorus
intro 4
solo
chorus
Comments