No Address - When Im Gone Chords & Tabs

 

When Im Gone Chords & Tabs

No Address Chords & Tabs

Version: 1 Type: Tab 0 ratings
1 star 2 stars 3 stars 4 stars 5 stars
comments

When Im Gone Tab

When I'm Gone
No Address
[ Tab from: http://www.guitartabs.cc/tabs/n/no_address/when_im_gone_tab.html ]
*palm muted
|-------------------------------------------|
|-------------------------------------------|
|-9-9-9-9-----------7-7-7-7-----------------|    x2
|-9-9-9-9--9-9-9-9--7-7-7-7--5-5--7-7-------|
|-7-7-7-7--9-9-9-9--5-5-5-5--5-5--7-7-------|
|----------7-7-7-7-----------3-3--5-5-------|
  * * *    * * *    * * *    * *  * *
Then
DISTORTION!
|--------------------------------------------|
|--------------------------------------------|
|-9-9-9-9-----------7-7-7-7------------------|
|-9-9-9-9--9-9-9-9--7-7-7-7--5-5--7-7--------|   x3
|-7-7-7-7--9-9-9-9--5-5-5-5--5-5--7-7--------|
|----------7-7-7-7-----------3-3--5-5--------|

that's pretty much the whole song. that second riff is the chorus and at the beginning
of each verse starts with just bass and then eventually comes in with the palm muted
riff. there's kind of a solo thing in the middle that I'll figure out later.
Comments