Nizlopi - Jcb Song Chords & Tabs

 

Jcb Song Chords & Tabs

Nizlopi Chords & Tabs

Version: 3 Type: Tab

Jcb Song Tab

   
-------------------------------------------------------------------------------
			     JCB Song - Nizlopi
-------------------------------------------------------------------------------
Tabbed by: Nick Shave
Email: nickedwhilstshaving@hotmail.co.uk

Tuning: Standard (my version doesn’t require a cappo, but the real song might)

Intro: (and break)
e|-----------5p2---------------5p2---2--------5p2----------------------------|
B|-------5-------------5----5------5-------5-----------5---5-----------------|
G|------2-2----------------2-2------------2-2-------------2------------------|
D|---0----------------------------------0------------------------------------|
A|-----------------------0------------------------------0--------------------|
E|---------------------------------------------------------------------------|

Riff 1:
e|----------5p2--------------5p2----2----------5p2--------------5p2-----------|
B|------5------------5----5-------5--------5------------5---5------5----------|
G|-----2-2---------------2-2--------------2-2--------------2-2-------2--------|
D|---0----------------------------------0-------------------------------------|
A|---------------------0----------------------------------0-------------------|
E|----------------------------------------------------------------------------|
[ Tab from: http://www.guitartabs.cc/tabs/n/nizlopi/jcb_song_tab_ver_3.html ]
Riff 2:
e|-------------------------0---------------------------------0---------------|
B|------3--------------3-----3-3------------3------------3-------------------|
G|----2-------2-2----2--2-----2-----------2-----2-2----2--2------------------|
D|--0--------------0--------------------0------------0-----------------------|
A|---------------------------------------------------------------------------|
E|---------------------------------------------------------------------------|

Chorus:
e|---------------------------------------------------------------------------|
B|------3-3------------------------------------------------------------------|
G|----2-----------(x8)-------------------------------------------------------|
D|--0----0-------------------------------------------------------------------|
A|---------------------------------------------------------------------------|
E|---------------------------------------------------------------------------|

Banjo ending (tabbed for guitar, just play it fast over and over)
e|---------------------------------------------------------------------------|
B|---------3--------------------3--------------------------------------------|
G|-------0----(x4)------------0------(x4)------------------------------------|
D|-----2--------------------0------------------------------------------------|
A|---------------------------------------------------------------------------|
E|---------------------------------------------------------------------------|

Intro, Riff 1, Riff 2, Riff 1, Riff 2, Chorus, Break (intro), Riff 1, Riff 2, Riff 1, Riff 2, Banjo end.

| /  slide up
| \  slide down
| h  hammer-on
| p  pull-off
| ~  vibrato
| +  harmonic
| x  Mute note
===============================================================================