Nizlopi - Jcb Song Chords & Tabs

 

Jcb Song Chords & Tabs

Nizlopi Chords & Tabs

Version: 2 Type: Tab

Jcb Song Tab

##NOTE: Although this tabs difficulty as at intermediate, it is only because learning
the song off by heart is difficult. Once you have played it a few times it is actually
a really easy song to play!!!

--------------------------------------------------------------
JCB Song - Nizlopi
--------------------------------------------------------------
Tabbed by: Danny Alder
Email: danny@dsdextreme.com

Tuning: Standard with capo on second fret

This is based on the original tab that was submitted by Jon Tucker but after playing
around with the song for a little while I think this version sounds more like the
original. I'm not saying it is exactly like the original and I am not a expert
guitarist, I just thought I would contribute.

I still don't know how the banjo bit goes though.

INTRO:

e|-----0----3-0---0------0---3-0---0-|
B|-------3------3----------3-----3---|
G|---0-----------------0-------------|
D|-----------------------------------|
A|-3-----3---------------------------|
E|------------------3----------------|

e|-----0----3-0---0------0-----------|
B|-------3------3----------3---------|   -|Let the last 3 on the
G|---0-----------------0-------------|   -|B string ring!!!
D|-----------------------------------|
A|-3-----3---------------------------|
E|------------------3----------------|

VERSE 1:

Well I'm rumbling in this JCB...
e|-----0----3-0---0------0---3-0---0-|
B|-------3------3----------3-----3---|
G|---0-----------------0-------------| Play Twice
D|-----------------------------------|
A|-3-----3---------------------------|
E|------------------3----------------|

The Engine rattles my bum like...
e|------------------------------------|
B|-------1-----1---1-----1---3-1---1--|
G|----0----0-----0-----0---0-----0----| Play Twice
D|------------------------------------|
A|-3-----------------3----------------|
E|------------------------------------|

Probably had a bloody hard day...
e|-----0----3-0---0------0---3-0---0--|
B|-------3------3----------3-----3----|
G|---0-----------------0--------------| Play Twice
D|------------------------------------|
A|-3-----3----------------------------|
E|------------------3-----------------|

The prosessioner's cars...
e|------------------------------------|
B|-------1---3-1---1-----1---3-1---1--|
G|----0----0-----0-----0---0-----0----| Play Twice -|Make sure to add the
D|------------------------------------|            -|extra 3 on the B
A|-3----------------------------------|            -|string!!!
E|-------------------3----------------|

CHORUS

And we're holding up the bypass...
e|------------------------------------|
B|-----1---1-1---1-----1---1-1---1----|
G|---0---0-----0-----0---0-----0------| Play Four Times
D|------------------------------------|
A|------------------------------------|
E|-1---------------3------------------|

PRE-VERSE (lmao dunno what this is called)

e|-----0----3-0---0------0---3-0---0-|
B|-------3------3----------3-----3---|
G|---0-----------------0-------------|
D|-----------------------------------|
A|-3-----3---------------------------|
E|------------------3----------------|      -|Careful it's not the
                                            -|same as the INTRO!!!
e|-----0----3-0---0------------------|
B|-------3------3--------------------|
G|---0-------------------------------|
D|-----------------------------------|
A|-3-----3---------------------------|
E|------------------3----------------|

VERSE 2:
[ Tab from: http://www.guitartabs.cc/tabs/n/nizlopi/jcb_song_tab_ver_2.html ]
And we pull over to let cars pass...
e|-----0----3-0---0------0---3-0---0-|
B|-------3------3----------3-----3---|
G|---0-----------------0-------------| Play Twice
D|-----------------------------------|
A|-3-----3---------------------------|
E|------------------3----------------|

Giants up here in our big yellow digger...
e|------------------------------------|
B|-------1-----1---1-----1---3-1---1--|
G|----0----0-----0-----0---0-----0----| Play Twice
D|------------------------------------|
A|-3-----------------3----------------|
E|------------------------------------|

Transform into a Tranasauras Rex...
e|-----0----3-0---0------0--------0---|
B|-------3------3----------3----------|
G|---0-----------------0--------------| -|Careful it's played
D|------------------------------------| -|differently here
A|-3-----3----------------------------|
E|------------------3-----------------|

And eat up all the bullys, teachers...

e|-----0---0---0-------0---3-0--------|
B|-------3---3---3-------3------------|
G|---0---------------0----------------| -|Careful it's played
D|------------------------------------| -|differently here
A|-3---------------3------------------|
E|------------------------------------|

Tell all my mates my dad's...
e|------------------------------------|
B|-------1---3-1---1-----1---3-1---1--|
G|----0----0-----0-----0---0-----0----| Play Twice -|Make sure to add the
D|------------------------------------|            -|extra 3 on the B
A|-3----------------------------------|            -|string!!!
E|-------------------3----------------|

CHORUS:

And we're holding up the bypass...
e|------------------------------------|
B|-----1---1-1---1-----1---1-1---1----|
G|---0---0-----0-----0---0-----0------| Play Four Times
D|------------------------------------|
A|------------------------------------|
E|-1---------------3------------------|

CHORUS:

And we're holding up the bypass...
e|------------------------------------|
B|-----1---1-1---1-----1---1-1---1----|
G|---0---0-----0-----0---0-----0------| Play Four Times
D|------------------------------------|
A|------------------------------------|
E|-1---------------3------------------|

I'm not sure whats played after this, if you know or work it out please email me
as it's bugging me that you have to stop playing half way through!

---------------------------
PLAYING WITH ANOTHER PERSON
---------------------------

Although the tabs above are written for one person, two guitarists or even a bass
player and guitarist can play the song together. If you want to do this I put a
little tab below, but it is common sense, just one of you play the bass line and
the other play the melody.

So you would play the INTRO like this:

GUITAR 1:

e|-----0----3-0---0------0---3-0---0-|
B|-------3------3----------3-----3---|
G|---0-----------------0-------------|
D|-----------------------------------|
A|-----------------------------------|
E|-----------------------------------|

e|-----0----3-0---0------0-----------|
B|-------3------3----------3---------|   -|Let the last 3 on the
G|---0-----------------0-------------|   -|B string ring!!!
D|-----------------------------------|
A|-----------------------------------|
E|-----------------------------------|

GUITAR 2/BASS:

e|-----------------------------------|
B|-----------------------------------|
G|-----------------------------------|
D|-----------------------------------|
A|-3-----3---------------------------|
E|------------------3----------------|

e|-----------------------------------|
B|-----------------------------------|
G|-----------------------------------|
D|-----------------------------------|
A|-3-----3---------------------------|
E|------------------3----------------|

!!!This method does make it more enjoyable and easier to play!!!