Nixons - Sister Chords & Tabs

 

Sister Chords & Tabs

Nixons Chords & Tabs

Version: 2 Type: Bass Tab 0 ratings
1 star 2 stars 3 stars 4 stars 5 stars
comments

Sister Bass Tab

Song:Sister
Album:Foma
Band:The Nixons
Tabbed By:betrnpippi

I think weve all waited long enough for this tab.I havent been able to find 
it anywhere so here ya go.

Tuning: Tune down one half step:(low to high)Eb Ab Db Gb

Verse 1: Starts right into the 1 verse "Here i am again...."

Gb--------------------------------------------------
Db--------------------------------------------------
Ab-----------------------7--7-9-10--10-9-7--7h9-7-5- 'Continued
Eb-3--3--3\10--10-10--10----------------------------

Verse 1: 'continued

Gb----------------------------12-11-9-----------------------------
Db------------------------------------------------------2---------
Ab------------------------------------7-9-10-10-9/0-0-0---2-3-3-3- play 2x
Eb-3--3-3--3\10--10-10--10/0--------------------------------------

Chorus:"Sister I see you standing on the stage of memories...."

Gb----------------------------------------------------------
Db----------------7h9-9p7-7-7-------------------------------
Ab----------2--5--------------0-0-0-2-3-3-3--3---------2--5-play 1x
Eb-3-3--3h5------------------------------------3-3--3h5-----

Verse 2: "Fleeting visits past..."

Gb---------------------------------------------------
Db---------------------------------------------------
Ab---------2h3--5-5--5-4----------7------------------ 'Continued
Eb--3--3h5---------------5-4-3-3-----8-7--8-7-0--8-7-

Verse 2: 'continued

Gb------------------------------------------------------------------
Db--------------------------------------------------------2---------
Ab--------2h3--5-5--5-4----------------------7--------------2-3-3-3- play 1x
Eb-3--3h5---------------5-4-3-3--0--8-7--8-7---8-7--5-5-5-----------

Chorus: "Sister I see you....."

Gb------------------------------------------------------------
Db----------------7h9-9p7-7-7---------------------------------
Ab----------2--5--------------0-0-0-2--3-3-3-3-----------2--5- play 1x
Eb-3-3--3h5-------------------------------------3-3--3h5------

Interlude: "All I am begins with you...."
[ Tab from: http://www.guitartabs.cc/tabs/n/nixons/sister_btab_ver_2.html ]
Gb-----------------------------------------------
Db-----------------------------------------------
Ab---------------3-3-3-3-3------------3-3--3-3-3- 'Continued
Eb-3-2-0--0-0-0------------3-3--3-3-3------------

Interlude: 'continued

Gb--------------------------------------------------------------------------
Db--------------------------------------------------------------------------
Ab---------------------3---33---3---33---3---------------------------------- 
'Continued
Eb-0--00--0---00----0----------------------5---55----5----55---5--3-3-3-3-3-

Interlude: 'continued

Gb-------------------------------------------------------------
Db-------------------------------------------------------------
Ab---------------------------5-5-5-5-5-5-5-5-5-5-5------------- 'Continued
Eb-3-3-3-3-3-3-3-3-3-3-3-3-3-----------------------0--0-0--0--0

Interlude: 'continued

Gb---------------------------------------------------------------
Db---------------------------------------------------------------
Ab---------------------------5-5-5-5-5-5-5-5-5-5-5--------------- 'Continued
Eb-3-3-3-3-3-3-3-3-3-3-3-3-3-----------------------0--0-0--0-0-0-

Interlude: 'continued

Gb---------------------
Db-------2-------------
Ab-0--0----2-3-3-3-3-3- play 1x
Eb---------------------

Chorus: "Sister I see you...."

Gb------------------------------------------------------------
Db---------------7h9-9p7-7-7----------------------------------
Ab----------2--5--------------0-0-0-2--3-3-3-3-3---------2--5- play 1x
Eb-3-3--3h5--------------------------------------3-3--3h5-----

Outro: "Entwined, You and I...."

Gb-------------------------------------
Db-------------------------------------
Ab----------5--5--5-7--7--7-7-3--3-3-3- play 2x
Eb-3--3-3h5----------------------------

Outro: (still the outro just a different part) "All I am...."

Gb----------------------------------------------------
Db----------------------------------------------------
Ab----------5--5-5-5-5--7--7-7-7-7-7--0-2-3-3-3-3-3-3- play 4x
Eb-3--3-3-5-------------------------------------------

Wait for the guitar riff and end on an open E...

YAY!! If u correct this tab please give me some credit cuz this is the 
hardest song ive ever tabbed.

Please E-mail for any reason at: gdrls@juno.com
Comments