Nitrous - Eeeeooorrrrr Chords & Tabs

 

Eeeeooorrrrr Chords & Tabs

Nitrous Chords & Tabs

Version: 2 Type: Tab 0 ratings
1 star 2 stars 3 stars 4 stars 5 stars
comments

Eeeeooorrrrr Tab

							    P= pull off
							    H= hammer on
							    /= slide
							    ^= bend
 							    m= palm mute
							    I= new time signature/part of song

e------------------------------------------------------------------------------------------------|
b------------------------------------------------------------------------------------------------|
g------------------------------------------------------------------------------------------------|
d---2---5-5------------------2---5-5----------------2---5-5----------5h7--2---5-5-------5h7-5----|
a---2---5-5---7h5-------5----2---5-5------5---------2---5-5------5h7------2---5-5--7-7-----------|
E---0---3-3-------7h5-7------0---3-3--5h7---7p5-7---0---3-3--5h7----------0---3-3----------------|

							         Do this riff 2 times
e---------------------------------------------------------I--------------------------------------|
b---------------------------------------------------------I--------------------------------------|
g---------------------------------------------------------I--------------------------------------|
d---2---5-5------5h7----2----------5h7----2-------5h7-----I----2---------5-------7---5-2---------|
a---2---5-5--7-7-----5--2------7-7-----5--2---7-7-----5---I----2---------5-------7---5-2---------|
E---0---3-3-------------0-----------------0---------------I----0---------3-------5---3-0---------|


    Do this 2 times
e------------------------------------------------------------------------------------------------|
b---10p8---8---10p8---8--10---10p8---8---10p8---8--10--10p8---8--10p8---8-10/11-10--10p8---8-----|
g--------9----------9--------------9----------9-------------9---------9------------------9-------|
d------------------------------------------------------------------------------------------------|
a------------------------------------------------------------------------------------------------|
E------------------------------------------------------------------------------------------------|
[ Tab from: http://www.guitartabs.cc/tabs/n/nitrous/eeeeooorrrrr_tab_ver_2.html ]
			     The final time, do this
e------------------------------------------------------------------------------------------------|
b---10p8---8-----------------10p8---8--10p8---8------10-8----------------------------------------|
g--------9----9--7----------------9---------9---9---------9-8-7----------------------------------|
d---------------------------------------------------------------9-8-7-5--------------------------|
a------------------------------------------------------------------------7-----------------------|
E------------------------------------------------------------------------------------------------|

   Repeat this 4 times
e---------------------------12-10--------------------------------7-7-7-5-5-5---5-----------------|
b---------------------------------12-10-------10-----------------------------7---7-5-------------|
g---------------------------------------12-11----12-11-9-7-11------------------------7/9---------|
d----5-5--2--5-5--7-------------------------------------------9--------------------------9-------|
a----5-5--2--5-5--7------------------------------------------------------------------------------|
E----3-3--0--3-3--5------------------------------------------------------------------------------|

e------------------------------------------------------------------------------------------------|
b---------------------------------------13-15---13-15---13-15---13-15----------------------------|
g----------7-9-11-9-11-9-7-9-7-------14------14------14------14----------------------------------|
d------7-9---------------------9-----------------------------------------------------------------|
a----9-------------------------------------------------------------------------------------------|
E------------------------------------------------------------------------------------------------|

    Repeat 4 times
e----------------------10-12----10-12------------------------------------------------------------|
b----------------------------12-------12----10-10-10--12-----------------------------------------|
g----------------------------------------------------------12-12-12--14p12--------14-12----12----|
d---5-5-2-----5-5-7--------------------------------------------------------14-----------14----14-|
a---5-5-2-----5-5-7------------------------------------------------------------------------------|
E---3-3-0-----3-3-5------------------------------------------------------------------------------|

	      Repeat this 4 times
e------------------------------------I-----------------------------------------------------------|
b------------------------------------I-----------------------------------------------------------|
g------------------------------------I-----------------------------------------------------------|
d---12/14-------2-2--m2-2m-8-7-5-----I-----------------------------------------------------------|
a---------------2-2--m2-2m-8-7-5-----I-----------------------------------------------------------|
E---------------0-0--m0-0m-6-5-3-----I-m---------------------------------------------------------|
Comments