Nitrous - Bled Chords & Tabs

 

Bled Chords & Tabs

Nitrous Chords & Tabs

Version: 1 Type: Tab 0 ratings
1 star 2 stars 3 stars 4 stars 5 stars
comments

Bled Tab

   
Nitrous,Bled.
Tabbed by Josh Green,sk8pnk2001.
  
this is another great song fromthis upstart band. I have not figuered it all ut yet but I will post the rest of the tabs at a later date. This is played in  D tuning(D,G,C,F,A,d)
intro
d-------------------
A-------------------
F-0000000000000000--repeat x2
C-0000333300003333--
G-0000111100001111--
D-0000000000000000--
verse
d--------------------------------
A--------------------------------
F--------------------------------
C-0x004h5p40x005/7\50x004b0x00765repeat x4
G-0x004h5p40x005/7\50x004b0x00765
D-0x004h5p40x005/7\50x004b0x00765
bridge(slide from each chord)
d-----------------
A-----------------
F----0---0---0---0
C---7---9---5---4-repeat x1
G--5---7---3---2--
D-0---0---0---0--- 
:: Ultimate Guitar Archive :: 
http://www.ultimate-guitar.com 


[ Tab from: http://www.guitartabs.cc/tabs/n/nitrous/bled_tab.html ]
Comments