Nirvana - You Know Youre Right Chords & Tabs

 

You Know Youre Right Chords & Tabs

Nirvana Chords & Tabs

Version: 8 Type: Tab 0 ratings
1 star 2 stars 3 stars 4 stars 5 stars
comments

You Know Youre Right Tab

   
YOU KNOW YOU'RE RIGHT
Nirvana

F#5 2 4 4 x x x
D x 5 7 7 7 x
D/A 5 5 7 7 7 x
E/B 7 7 9 9 9 x 
E x 7 9 9 9 x
D5/A 5 5 7 7 x x 



 Intro
  Moderate Rock Q=86
  N.C.(F#5)
 4/4
  Gtr II
   PM----------------------------------------------------------------------
|---------16--------------16--------|---------16--------------------16----|
|------16---------------------------|------16----------16-(16)------------|
|-16----------16-(16)--16-----16-16-|-16----------(16)---------16---------|
|-----------------------------------|-------------------------------------|
|-----------------------------------|-------------------------------------|
|-----------------------------------|-------------------------------------|
|
| Gtr I
|-----------------------------------|-------------------------------------|
|-----------------------------------|-------------------------------------|
|-----------------------------------|-------------------------------------|
|-----------------------------------|-------------------------------------|
|-----------------------------------|-------------------------------------|
|--0h2----(2)--2---0h2----(2)--2----|--0h2----(2)-------0--(0)h=2-2-(2)-2-|


 ----------------------------------|
|---------16----------------16---------|
|------16--------16------16------------|
|-16----------16----16----------16-16--|
|--------------------------------------|
|--------------------------------------|
|--------------------------------------|
|
|--------------------------------------|
|--------------------------------------|
|--------------------------------------|
|--------------------------------------|
|--------------------------------------|
|--0h2----(2)--2-----0h2----(2)--2--2--|


                          F#5
   PM----------|
|---------16---(16)----||-------------------------|
|------16--------------||-------------------------|
|-16-------------------||-------------------------|
|----------------------||-------------------------|
|----------------------||-------------------------|
|----------------------||-------------------------|
|
|                         PM-----------------------
|----------------------||-------------------------|
|----------------------||-------------------------|
|----------------------||-------------------------|
|----------------------||-------4---4-------4-----|
|----------------------||-4---4---4-----4-4-4---4-|
|--0h2----(2)---(2)----||-0h2-2-------0---2-2-0---|


|------------------------------|
|------------------------------|
|------------------------------|
|------------------------------|
|------------------------------|
|------------------------------|
|
|---------------------------|
|------------------------------|
|------------------------------|
|------------------------------|
|------------------------------|
|---4---4-----4-------------4--|
|-0---2-2p0-0---0-2-2-2p0-0----|


  Gtr I
  PM-------------------------
|---------------------------|
|---------------------------|
|---------------------------|
|-------4---4---------------|
|---4---4-------4---------4-|
|-0---2-2-0---0---2-2p0-0---|


                              1st Verse
                               F#5
 ---------------------------------------------------|
|---------------------------||------------------------|
|---------------------------||------------------------|
|---------------------------||------------------------|
|---------------------------||-------4---4--4---4-----|
|-------------4---4-------4-||-4-----4-x--------4---4-|
|-0-2-2-2p0-0---0---2-2p0-0-||-0h2-2----------2---0---|


  PM-------------------------
|---------------------------|
|---------------------------|
|---------------------------|
|-----------4---------------|
|---4---4-4-4---4---4-----4-|
|-0---2-2-----2---2-2p0-0---|


                                                    Gtr III
 -----------------------------------------------|
|-----------------------------|-----------------------||
|-----------------------------|-------------------0---||
|-----------------------------|-------------------x-0-||
|---------------------------4-|-----------4-4-4-4-4-0-||
|-------4-----4---4-4-4-----4-|---4---4-4-4-4-4-4-4-0-||
|-0h2-2-2p0-0---0---2-2p0-0---|-0---2-2-2-2-2-2-2-2-0-||


 1st Pre-chorus
  D               D/A
|-------------------------|
|-7-7-7-7-7-(7)-7-7-7-7---|
|-7-7-7-7-7-(7)-7-7-7-7---|
|-7-7-7-7-7-(7)-7-7-7-7---|
|-5-5-5-5-5-(5)-5-5-5-5-5-|
|-----------------5-5-5-5-|


                               2nd Verse
    E/B                         F#5
                                Gtr I
|----------------------------||------------------------|
|-7s9-9-9-9-9-9-9-9-9-9-9----||------------------------|
|-7s9-9-9-9-9-9-9-9-9-9-9-9\-||-------4----------------|
|-7s9-9-9-9-9-9-9-9-9-9-9-9\-||-4-----------------4----|
|-5s7-7-7-7-7-7-7-7-7-7-7-7\-||-4---4---4-4-4---4------|
|-5s7-7-7-7-7-7-7-7-7-7-7-7\-||-0h2-----0-0-0h2-2---0--|


|----------------------|---------------------|------------------||
|----------------------|---------------------|------------------||
|----------------------|---------------------|------------------||
|-----4--4-------4-4---|-4---4-4-(4)-4-(4)---|-4---4-4-4-4--4---||
|----------4---4-4-4---|---------------------|-------4-4-4--4---||
|-(0)------0h2-2-2-2-0-|---2---------------0-|---2---2-2-2--2-0-||


 2nd Pre-chorus
  D                     E
                                    Gtr III
|-------------------|----------------------------||
|-----7---------7---|-------9--------------------||
|---7---7-(7)-------|-------9---9-9-9-9-9--------||
|-7-----------7---7-|-7s9-9---9-9-9-9-9-9--------||
|-5---------------5-|-5s7-7---7-7-7-7-7-7s12-----||
|-------------------|------------------------12\-||


 1st Chorus
  F#5
|----------------------------------|
|----------------------------------|
|----------------------------------|
|----------------------------------|
|-4---4-4-4---4-------4-4-4---4-4--|
|-0h2-2-2-2p0-0-0-(0)-2-2-2p0-0-0--|


|---------------------------|
|---------------------------|
|---------------------------|
|---------------------------|
|-4---4-4-4-4-4-(4)-4-4-4-4-|
|-0h2-2-2-2-2-0-(0)-2-2-2-0-|


|---------------------------|--------------------------|
|---------------------------|--------------------------|
|---------------------------|--------------------------|
|---------------------------|-----------------------0--|
|-4---4-4-4-4-(4)-4-4-4-----|---4-4-4-4-4-(4)-4-4-4-0--|
|-0h2-2-2-2-0-(0)-2-2-2-0-0-|-0-2-2-2-2-0-(0)-2-2-2-0--|


  D5     D5/A              E/B                              N.C.(F#5)
                                                                      <
                                                              ~~~~~~~~~~~
|----------------------|----------------------------------|-----------------|
|----------------------|-----9-9-9-9-9-9-(9)-9-9-9-9-9-9\-|-----------------|
|-7--7-7-7-(7)-7-7-7-7-|-7s9-9-9-9-9-9-9-(9)-9-9-9-9-9-9\-|-----------------|
|-7--7-7-7-(7)-7-7-7-7-|-7s9-9-9-9-9-9-9-(9)-9-9-9-9-9-9\-|-----------------|
|-5--5-5-5-(5)-5-5-5-5-|-5s7-7-7-7-7-7-7-(7)-7-7-7-7-7-7\-|-----------------|
|--------5-(5)-5-5-5-5-|-5s7-7-7-7-7-7-7-(7)-7-7-7-7-7-7\-|-0h2-(2)--[2]----|


                                               <   <
   ~~~                                             ~~~
|------------|--------------|--------------------------||
|------------|--------------|--------------------------||
|------------|--------------|--------------------------||
|------------|--------------|--------------------------||
|------------|--------------|--------------------------||
|-(2)--------|-[2]b4--------|-[2]pb3.5r===(2)-[2]-[2]--||


 3rd Verse
  N.C.(F#5)
|-----||
|-----||
|-----||
|-----||
|-----||
|-----||

[ Tab from: http://www.guitartabs.cc/tabs/n/nirvana/you_know_youre_right_tab_ver_8.html ]
 3rd Pre-chorus                                  4th Verse
  D                     E                         F#5
  Gtr I
                                                  PM----------------------|
|-------------------|--------------------------||----------------------------|
|-----7---------7---|-------9-------------9----||----------------------------|
|-------7-(7)-------|-----------9-(9)----------||-----4----------------------|
|---7---7-(7)-7---7-|-7s9-9---9---------9---9\-||----------------------------|
|-5-----------------|-5s7-------------7-----7\-||---------4-(4)-4-4-4-----4--|
|-------------------|--------------------------||-0h2---2-----------2p0-0----|


  PM-------------------------
|---------------------------|
|---------------------------|
|---------------------------|
|-----------4---------------|
|-----4-4-4-----4---4-----4-|
|-0h2---2-----0---2-2p0-0---|


                                              Gtr III
 -------------------------------|
|-------------------------|------------------------||
|-------------------------|------------------------||
|-------4-----------------|-------4-4-(4)----------||
|-----------4-------4---4-|-------4-4-(4)-4-4-4-0--||
|-----------4---4-----4---|---4-4-4-4-(4)-4-4-4-0--||
|-0h2-2---2---0---2---2---|-0---2-2-2-(2)-2-2-2-0--||


 Pre-chorus
  D5     D5/A              E/B
|----------------------|--------------------------||
|----------------------|-----9-9-9-9-9-9-9--------||
|-7--7-7-7-(7)-7-7-7-7-|-7s9-9-9-9-9-9-9-9--------||
|-7--7-7-7-(7)-7-7-7-7-|-7s9-9-9-9-9-9-9-9--------||
|-5--5-5-5-(5)-5-5-5-5-|-5s7-7-7-7-7-7-7-7--------||
|--------5-(5)-5-5-5-5-|-5s7-7-7-7-7-7-7-7-6-6-7\-||


 2nd Chorus
  F#5
      ~
|------------------------------|
|------------------------------|
|------------------------------|
|------------------------------|
|-------------0-(0)-4-4-4------|
|-0h2-2-2p0-0-0-(0)-2-2-2p0-0--|


|-----------------------------|-----------------------------|
|-----------------------------|-----------------------------|
|-----------------------------|-----------------------------|
|-----4-4---------------------|-----------------------------|
|-4---4-4---4-4-(4)-4-4-4-----|-----4-4-----------4-4-4-----|
|-0h2-2-2p0-0-0-(0)-2-2-2p0-0-|-0h2-2-2p0-0-0-(0)-2-2-2p0-0-|


|-------------------------------|
|-------------------------------|
|-------------------------------|
|-------------------------------|
|-----4-4---4-4-(4)-4-4-4-------|
|-0h2-2-2p0-0-0-(0)-2-2-2p0-0---|


|-----------------------------|-----------------------------|
|-----------------------------|-----------------------------|
|-----------------------------|-----------------------------|
|-----------------------------|-----------------------------|
|-----4-4-----------4-4-4-----|-----4-4---4-4-(4)-4-4-4-----|
|-0h2-2-2p0-0-0-(0)-2-2-2p0-0-|-0h2-2-2p0-0-0-(0)-2-2-2p0-0-|


|-------------------------------|
|-------------------------------|
|-------------------------------|
|-------------------------------|
|-----4-4-----------4-4-4-------|
|-0h2-2-2p0-0-0-(0)-2-2-2p0-0---|


|-----------------------------|
|-----------------------------|
|-----------------------------|
|-----------------------------|
|-----4-4---4-4-(4)-4-4-4-----|
|-0h2-2-2p0-0-0-(0)-2-2-2p0-0-|


  D           D/A             E/B
|-------------------------|-----------------------|
|-7-7-7-7-7-7-7-7-7-7-7-7-|-7s9-9-9-9-9-9---------|
|-7-7-7-7-7-7-7-7-7-7-7-7-|-7s9-9-9-9-9-9-9-------|
|-7-7-7-7-7-7-7-7-7-7-7-7-|-7s9-9-9-9-9-9-9-------|
|-5-5-5-5-5-5-5-5-5-5-5-5-|-5s7-7-7-7-7-7-7-------|
|-------------5-5-5-5-5-5-|-5s7-7-7-7-7-7-7-7-6-7-|


  N.C.(F#5)
    ~~~~~~                      TPTPTPTPTP TP
|-----------------------------|------------------|---------------------------|
|---------------------4b4.5S5-|-5S7S8S9-9S=7-7p0-|---------------------------|
|-----------------------------|------------------|---------------------------|
|-----------------------------|------------------|---------------------------|
|-----------------------------|------------------|---------------------------|
|-0h2-2-2-0-(0)-2-2-0---------|------------------|-0h2-2-0-0-(0)-2-2-2p0-0-0-|


    F#5                                  N.C.(F#)
|---------------------------||------------------------|
|---------------------------||-----------0-6b7===(6)r-|
|---------------------------||-----------0------------|
|---------------------------||------------------------|
|---4-4-4-4-4-(4)-4-4-4-4-4-||-4---4-4-4--------------|
|-0-2-2-2-2-2-(2)-2-2-2-2-2-||-0h2-2-2-2--------------|


|-------------------------------|
|-0-----------------------------|
|---3-(3)--(3)-3pb4r(3)b4==(3)r=|
|-------------------------------|
|-------------------------------|
|-------------------------------|


                                ~~~~~~~~~~          ~
|--------4b5==(4)r-------|----------------------||-----------------------|
|--------5b6==(5)r-------|------5b7==(5)r-------||o------5b7==(5)r-------|
|-(3)--3-----------4-3-4-|-3--3-----------4-3-4-||--3--3-----------4-3-4-|
|------------------------|----------------------||-----------------------|
|------------------------|----------------------||o----------------------|
|------------------------|----------------------||-----------------------|


|-------------------------||
|------0-5b7==(5)r-------o||
|-3-4\-------------4-3-4--||
|-------------------------||
|------------------------o||
|-------------------------||


                                                    <
           ~~~~~~~~~~          ~
|----------------------------|--------------------------|
|----------5b7==(5)r-<4>-----|------5b7==(5)---(5)-[5]r-|
|-3\---------------------3-4-|-3--4---------------------|
|----------------------------|--------------------------|
|----------------------------|--------------------------|
|----0-(0)-------------------|--------------------------|


                  <                   <         <
|-----------------------|----------------|--------------|-----||
|-(5)pb6r==(5)----------|----------------|--------------|-----||
|--------------4-[4]----|-(4)------------|--------------|-----||
|-----------------------|----------------|--------------|-----||
|-----------------------|----------------|--------------|-----||
|-----------------------|----------0-[0]-|-0h2-[2]------|-----||


 Outro
  N.C.(F#5)
  Gtr II
   PM-------------------------
|---------16-------------16--|
|------16-----16-(16)--------|
|-16------------------16-----|
|----------------------------|
|----------------------------|
|----------------------------|
|
| Gtr I
|----------------------------|
|----------------------------|
|----------------------------|
|----------------------------|
|----------------------------|
|--0h2----(2)----------------|


 ----------------------------------------------------|
|---------16--16----------16--|---------16-----------16---|
|------16--------16-(16)------|------16-------------------|
|-16--------------------------|-16----------16-(16)-------|
|-----------------------------|---------------------------|
|-----------------------------|---------------------------|
|-----------------------------|---------------------------|
|
|-----------------------------|---------------------------|
|-----------------------------|---------------------------|
|-----------------------------|---------------------------|
|-----------------------------|---------------------------|
|-----------------------------|---------------------------|
|--0h2----(2)-----------------|--0h2----(2)--2--(2)-------|


   PM------------------------|
|---------16---(16)----16--|---------------|------------|--------*|
|------16-----------16-----|---------------|------------|--------*|
|-16-----------------------|-16------------|------------|--------*|
|--------------------------|---------------|------------|--------*|
|--------------------------|---------------|------------|--------*|
|--------------------------|---------------|------------|--------*|
|
|--------------------------|---------------|------------|--------*|
|--------------------------|---------------|------------|--------*|
|--------------------------|---------------|------------|--------*|
|--------------------------|---------------|------------|--------*|
|--------------------------|---------------|------------|--------*|
|--0h2----(2)--------------|--0h2-(2)------|-(2)--------|-(2)----*|
Comments