Nirvana - You Know Youre Right Chords & Tabs

 

You Know Youre Right Chords & Tabs

Nirvana Chords & Tabs

Version: 7 Type: Tab 0 ratings
1 star 2 stars 3 stars 4 stars 5 stars
comments

You Know Youre Right Tab

this is my first posted tab so feel free to rate it

intro (the bell like sounds) pick behind the bridge in the pattern stated by the x's

clean with light chorus (2x)

|-----------------------------------| 
|-----------------------------------| 
|------x-------x-----x--------------| 
|------------x-----------x----------| 
|---x-------x-----x--------x--------| 
|-x------x------x------------x-x----|

verse  clean except where otherwise noted
|-----------------------|--------------------------|---------------------| 
|-----------------------|--------------------------|---------------------| 
|-----------------------|--------------------------|---------------------|
|-----------------------|--------------------------|---------------------| three times
|---------4--------4----|---------4--------4-------|---------4---------4-| 
|--0-2-22---2--0-2--2---|--0-2-22---2--0-2--2------|-0-2-22---2--0-2--2--| 
palm mute all occasionally letting the 4's ring out unmuted

|-----------------------|---------------------------|
|-----------------------|---------------------------|
|-----------------------|----------7-777-9-999------|
|-----------------------|----4-44--7-777-9-999------| 
|---------4--------4----|----4-44--5-555-7-777------|
|--0-2-22---2--0-2--2---|--0-2-22-------------------|then back to the verse 
				  | distorted  |
|-----------------------|--------------------------|---------------------| 
|-----------------------|--------------------------|---------------------| 
|-----------------------|--------------------------|---------------------|
|-----------------------|--------------------------|---------------------| twice
|---------4--------4----|---------4--------4-------|---------4---------4-| 
|--0-2-22---2--0-2--2---|--0-2-22---2--0-2--2------|-0-2-22---2--0-2--2--|

|-----------------------|------------------------------------|-------------------|
|-----------------------|------------------------------------|-------------------|
|-----------------------|---------7-----7--------9-----9-----|-------------------|
|-----------------------|-------7-----7---7----9-----9---9---|-------------------|
|---------4--------4----|-----5-----5--------7-----7---------|0-4444-4-0-4444-4-2|
|--0-2-22---2--0-2--2---|--0---------------------------------|0-2222-2-0-2222-2-0|
			 clean with chorus		      |   distortion     |
								Paaiiinnn!!!

|---------------------------------|---------------------------|
|----------12^--/---16---15p17/15-|---------------------------|
|---------------------------------|---------------------------|
|---------------------------------|---------------------------| 
|---------------------------------|---------------------------|
|---------------------------------|---------------------------|
 let each note ring for as long as possible 
w/out feedback(that is for the other solo)
the tremolo sound on these notes is caused by the 
chorus being set on its highest setting on all knobs
if you have a tone-lok chorus/ flanger set it on wicked

[ Tab from: http://www.guitartabs.cc/tabs/n/nirvana/you_know_youre_right_tab_ver_7.html ]
|-----------------------|--------------------------|---------------------| 
|-----------------------|--------------------------|---------------------| 
|-----------------------|--------------------------|---------------------|
|-----------------------|--------------------------|---------------------| three times
|---------4--------4----|---------4--------4-------|---------4---------4-| 
|--0-2-22---2--0-2--2---|--0-2-22---2--0-2--2------|-0-2-22---2--0-2--2--| 
 this verse done with out palmute 

|-----------------------|------------------------------------|
|-----------------------|------------------------------------|
|-----------------------|---------7-----7--------9-----9-----|
|-----------------------|-------7-----7---7----9-----9---9---|
|---------4--------4----|-----5-----5--------7-----7---------|
|--0-2-22---2--0-2--2---|--0---------------------------------| back to verse
			 clean with chorus		      


|-----------------------|--------------------------|---------------------| 
|-----------------------|--------------------------|---------------------| 
|-----------------------|--------------------------|---------------------|
|-----------------------|--------------------------|---------------------| three times
|---------4--------4----|---------4--------4-------|---------4---------4-| 
|--0-2-22---2--0-2--2---|--0-2-22---2--0-2--2------|-0-2-22---2--0-2--2--| 
palm mute all occasionally letting the 4's ring out unmuted

|-----------------------|---------------------------|-------------------|
|-----------------------|---------------------------|-------------------|
|-----------------------|----------7-777-9-999------|-------------------|
|-----------------------|----4-44--7-777-9-999------|-------------------|
|---------4--------4----|----4-44--5-555-7-777------|0-4444-4-0-4444-4-2|
|--0-2-22---2--0-2--2---|--0-2-22-------------------|0-2222-2-0-2222-2-0|
				  | distorted  |     |   distorted 3x's |

anti-solo time				
|---------------------------------|---------------------------|
|---------------------------------|--------------------10^----|
|----------9-/10-/9/8~ ~ ~ -------|--9-/10-/9/8~ ~ ~ ---------|4x then
|-----10^-------------------------|---------------------------| 
|---------------------------------|---------------------------|
|---------------------------------|---------------------------|

|---------------------------------|---------------------------|
|---------------------------------|--------------------10^----|
|--*feedback with chorus in wicked mode----------------9^-----|
|---------------------------------|---------------------------| 
|---------------------------------|---------------------------|
|---------------------------------|---------------------------|

then go back to picking behind the bridge:

clean with light chorus continued until song ends

|-----------------------------------| 
|-----------------------------------| 
|------x-------x-----x--------------| 
|------------x-----------x----------| 
|---x-------x-----x--------x--------| 
|-x------x------x------------x-x----|
Comments