Nirvana - You Know Youre Right Chords & Tabs

 

You Know Youre Right Chords & Tabs

Nirvana Chords & Tabs

Version: 5 Type: Tab 0 ratings
1 star 2 stars 3 stars 4 stars 5 stars
comments

You Know Youre Right Tab

   
Intro/Verse
F#5
e-----------------------------
B-----------------------------
G-----------------------------    8x
D-----------------------------   
A--------4-------------4------
E-0p2-2-2----2--0p2-2---2-----

End Of Verse/End of Chorus
D			    E
e----------------------------|-----------------------------
B-----7-7-7-7-7-7-7-7-7-7-7--|9-9-9-9-9-9-9-9-9-9-9-9-9-9--
G-7---7-7-7-7-7-7-7-7-7-7-7--|9-9-9-9-9-9-9-9-9-9-9-9-9-9--
D-7---7-7-7-7-7-7-7-7-7-7-7--|9-9-9-9-9-9-9-9-9-9-9-9-9-9--
A-5---5-5-5-5-5-5-5-5-5-5-5--|7-7-7-7-7-7-7-7-7-7-7-7-7-7--
E----------------------------|-----------------------------

Heavier Verse Riff
F#5
e--------------------------------
B--------------------------------
G--------------------------------   4x
D--------------------------------
A-4---4-4-4---4--4-4-4--4---4----
E-0p2-2-2-2---2--0p2-2--2---2----

e------------------------------------------------
B------------------------------------------------
G-----7-----7---------------9-----9--------------
D---7-----7---7----------9-----9---9-------------
A-5-----5--------------7-----7-------------------
E------------------------------------------------

Chorus
F#5
e-------------------------------------------------
B-------------------------------------------------
G-------------------------------------------------
D--4---4-4-4---4-4--4-4--4-4-4-4-4-4-4-4-4-4------
A--4---4-4-4---4-4--4-4--4-4-4-4-4-4-4-4-4-4------
E--0p2-2-0-0---0h2--2-0--0h2-2-0-0-0h2-2-2-0------

e-------------------------------------------------------
B----------------------18b~~~20br~~~~~------------------
G-------------------------------------------------------
D-------------------------------------------------------
A-------------------------------------------------------
E-------------------------------------------------------

Heavier Verse Riff
F#5
e------------------------------
B------------------------------
G------------------------------   4x
D------------------------------
A-4---4-4-4---4--4-4-4--4---4--
E-0p2-2-2-2---2--0p2-2--2---2--

e------------------------------------------------
B------------------------------------------------
G-----7-----7---------------9-----9--------------
D---7-----7---7----------9-----9---9-------------
A-5-----5--------------7-----7-------------------
E------------------------------------------------
[ Tab from: http://www.guitartabs.cc/tabs/n/nirvana/you_know_youre_right_tab_ver_5.html ]
F#5
e-----------------------------
B-----------------------------
G-----------------------------    4x
D-----------------------------   
A-------4--------------4------
E-0p2-2-2----2--0p2-2--2------


D			    E
e----------------------------|-----------------------------
B-----7-7-7-7-7-7-7-7-7-7-7--|9-9-9-9-9-9-9-9-9-9-9-9-9-9--
G-7---7-7-7-7-7-7-7-7-7-7-7--|9-9-9-9-9-9-9-9-9-9-9-9-9-9--
D-7---7-7-7-7-7-7-7-7-7-7-7--|9-9-9-9-9-9-9-9-9-9-9-9-9-9--
A-5---5-5-5-5-5-5-5-5-5-5-5--|7-7-7-7-7-7-7-7-7-7-7-7-7-7--
E----------------------------|-----------------------------

Chorus
F#5

e--------------------------------------------
B--------------------------------------------
G--------------------------------------------
D--4---4-4-4---4-4--4-4--4-4-4-4-4-4-4-4-4-4-
A--4---4-4-4---4-4--4-4--4-4-4-4-4-4-4-4-4-4-
E--0p2-2-0-0---0h2--2-0--0h2-2-0-0-0h2-2-2-0-

Ending Bendy sounding part

e---------------------------------------
B---------------------------------------
G---------------------------------------
D---------------------------------------
A-/19br----12~~~~~----------------------
E---------------------------------------

e-----------------------------------------------
B-----------------------------------------------
G-----------------------------------------------
D-----------------------------------------------
A--13--12--13b--12~~~~~~19b---------------------
E-----------------------------------------------

at the last "Pain"

F#5
e-----------------------------
B-----------------------------
G-----------------------------    4x
D-----------------------------   
A--------4-------------4------
E-0p2-2-2----2--0p2-2--2------

Lyrics:

I will never bother you
I will never promise to
I will never follow you
I will never bother you
Never speak a word again
I will crawl away for good
I will move away from here
You won't be afraid of fear
If i was but any of this
And always knew it would come to this
Things have never been so swell
I have never felt or felt

Pain...Pain..Pain...Pain...

You Know You're Right

Need someone to co-inside
I no longer have to hide
Lets talk about someone else
Stinging silver begins to melt
nothing really bothers her
she just wants to love himself
i will move away from here
You won't be afraid of fear
if i was but any of this
Always knew it would come like this
Things have never been so swell 
i have never felt or felt

Pain.....Pain.......Pain.......Pain......
You Know Your Right
pain...
Comments