Nirvana - You Know Youre Right Chords & Tabs

 

You Know Youre Right Chords & Tabs

Nirvana Chords & Tabs

Version: 3 Type: Tab 0 ratings
1 star 2 stars 3 stars 4 stars 5 stars
comments

You Know Youre Right Tab

Nirvana - You know your right
Tuning - 1/2 Down
By - Jim lambert


Intro - Repeat 4 times

E-------------------------------------------------
B-------------------------------------------------
G-------------------------------------------------
D--------------------4----------------------------
A--4-----4-4-4-4----------4----4-4-4-4----4-------
E--0h2---2-2-2-2-0--------0h2--2-2-2-2--0---------

PM |----------------------------------------|




Verse - Repeat 4 times

E-------------------------------------------------
B-------------------------------------------------
G-------------------------------------------------
D------------------------------------------4------
A--4-----4-4-4-4-4-4-------4----4-4-4-4----4------
E--0h2---2-2-2-2-0-0-------0h2--2-2-2-2--0--------

PM |----------------------------------------|


1st Bridge
Distorted

E-------------------------------------------------
B--7--7--7-7-7-7--7/9--9--9--9-9-9-9--9-----------
G--7--7--7-7-7-7--7/9--9--9--9-9-9-9--9-----------
D--7--7--7-7-7-7--7/9--9--9--9-9-9-9--9-----------
A--5--5--5-5-5-5--5/7--7--7--7-7-7-7--7-----------
E-------------------------------------------------



Verse - Repeat 4 times

E-------------------------------------------------
B-------------------------------------------------
G-------------------------------------------------
D------------------------------------------4------
A--4-----4-4-4-4-4-4-------4----4-4-4-4----4------
E--0h2---2-2-2-2-0-0-------0h2--2-2-2-2--0--------

PM |----------------------------------------|


@nd Bridge
Clean
[ Tab from: http://www.guitartabs.cc/tabs/n/nirvana/you_know_youre_right_tab_ver_3.html ]
E-------------------------------------------------
B----------7----------7----------9----------9-----
G-------7----7------7---7/9----9---9------9---9---
D----7--------7--7------7/9--9------9---9---------
A--------------5--------5/7-----------7-----------
E-------------------------------------------------


Chorus
Distorted


Repeat 4 times
E------------------------|--------------------------------------------
B------------------------|---7--7--7-7-7-7--7-7/9--9--9--9-9-9-9--9---
G------------------------|---7--7--7-7-7-7--7-7/9--9--9--9-9-9-9--9---
D--4-----4-4-4-4-4-4-----|---7--7--7-7-7-7--7-7/9--9--9--9-9-9-9--9---
A--4-----4-4-4-4-4-4-----|---5--5--5-5-5-5--5-5/7--7--7--7-7-7-7--7---
E--0h2---2-2-2-2-0-0-----|--------------------------------------------


INRTO

VERSE
I will never bother you
I will never promise to
I will never follow you
I will never bother you.

BRIDGE 1
Never speak a word again
I will crawl away for good

VERSE
I will move away from here
You won't be afraid of fear
No thought was put into this
And I've always known it would come to this.

BRIDGE 2
Things have never been so swell
And I have never felt so well. 

CHORUS
Pain 
You know you're right 

VERSE
I'm so warm and calm inside
I no longer have to hide
Lets talk about someone else
Steaming soup begins to melt

BRIDGE 2
Nothing really bothers her
She just wants to love herself

VERSE
I will move away from here
You won't be afraid of fear
No thought was put into this
I've always knew it'd come to this

BRIGDE 1
Things have never been so swell
And I have never felt so swell. 

CHORUS
Pain 
You know you're right
Pain
Comments