Nirvana - You Know Youre Right Chords & Tabs

 

You Know Youre Right Chords & Tabs

Nirvana Chords & Tabs

Version: 10 Type: Tab 1 rating
1 star 2 stars 3 stars 4 stars 5 stars
comments

You Know Youre Right Tab

You Know You're Right
Nirvana

Tuned down half-step

Intro
(pick the x's between the bridge and tailpiece)
(use fret hand to do the hammer-on)

e|-------x---------x---------x---------x---|
B|-----x---------x---------x---------x-----|
G|-x-------x-x-------x-x-------x-x-------x-|
D|-----------------------------------------|
A|-----------------------------------------|
E|-0h2-------0h2-------0h2-------0h2-------|

e|-------x---------x---------x---------x---|
B|-----x---------x---------x---------x-----|
G|-x-------x-x-------x-x-------x-x---------|
D|-----------------------------------------|
A|-----------------------------------------|
E|-0h2-------0h2-------0h2-------0h2-------|

e|-------------------------|-----------------------------|
B|-------------------------|-----------------------------|
G|-------------------------|-----------------------------|
D|-------4---4-------------|-----------------------------|
A|-4---4---4-----4---4---4-|---4---4-----4-------4-----4-|
E|-0h2---------0---2-2-0---|-2---2-2p0-0---0-2-2-2p0-0---|
(pm)

e|-----------------------------|---------------------------|
B|-----------------------------|---------------------------|
G|-----------------------------|---------------------------|
D|-------------4---------------|---------------------------|
A|---4---4---------4---4-----4-|-------4-----4---4---4---4-|
E|-2---2-2p0-0---0---2-2p0-0---|-0-2-2-2p0-0---0---2-2p0-0-|
(pm)

e|-------------------------|-----------------------------|
B|-------------------------|-----------------------------|
G|-------------------------|-----------------------------|
D|-------4---4-------------|-----------------------------|
A|-4---4---4-----4---4---4-|---4---4-----4-------4-----4-|
E|-0h2---------0---2-2-0---|-2---2-2p0-0---0-2-2-2p0-0---|
(pm)

e|-----------------------------|---------------------------|
B|-----------------------------|---------------------------|
G|-----------------------------|---------------------------|
D|-------------4---------------|---------------------------|
A|---4---4---------4---4-----4-|-------4-----4---4---4---4-|
E|-2---2-2p0-0---0---2-2p0-0---|-0-2-2-2p0-0---0---2-2p0-0-|
(pm)

e|-------------------------|-----------------------------|
B|-------------------------|-----------------------------|
G|-------------------------|-----------------------------|
D|-------4---4-------------|-----------------------------|
A|-4---4---4-----4---4---4-|---4---4-----4-------4-----4-|
E|-0h2---------0---2-2-0---|-2---2-2p0-0---0-2-2-2p0-0---|
(pm)

e|-----------------------------|---------------------------|
B|-----------------------------|---------------------------|
G|-----------------------------|---------------------------|
D|-------------4---------------|---------------------------|
A|---4---4---------4---4-----4-|-------4-----4---4---4---4-|
E|-2---2-2p0-0---0---2-2p0-0---|-0-2-2-2p0-0---0---2-2p0-0-|
(pm)

Verse
(I will never bother you...)
e|-------------------------|-----------------------------|
B|-------------------------|-----------------------------|
G|-------------------------|-----------------------------|
D|-------4---4-------------|-----------------------------|
A|-4---4---4-----4---4---4-|---4---4-----4-------4-----4-|
E|-0h2---------0---2-2-0---|-2---2-2p0-0---0-2-2-2p0-0---|
(pm)

e|-----------------------------|-----------------------------|
B|-----------------------------|-----------------------------|
G|-----------------------------|-----------------------------|
D|-------------4---------------|-----------------------------|
A|---4---4---------4---4-----4-|---4---4---4---4---4--4--0-0-|
E|-2---2-2p0-0---0---2-2p0-0---|-2-2-2-2---2---2---2--2--0-0-|
pm . . . . . . . . . . . . . .   . . . .   .    

(Never speak a word again...)
e|-----------------------|------------------------------|
B|-7---7----7---7--7---7-|-9---9--9--9--9--9---9-9-9-9\-|
G|-7---7----7---7--7---7-|-9---9--9--9--9--9---9-9-9-9\-|
D|-7---7----7---7--7---7-|-9---9--9--9--9--9---9-9-9-9\-|
A|-5---5----5---5--5---5-|-7---7--7--7--7--7---7-7-7-7\-|
E|-----------------------|------------------------------|

(I will move away form here...)
e|------------------------|---------------------|
B|------------------------|---------------------|
G|------------------------|---------------------|
D|-------4--------------4-|---4----4----4--4--4-|
A|-----4-------4-4-4--4---|---------------------|
E|-0h2--------------------|---------------------|

e|-------------------------------|----------------------------|
B|-------------------------------|----------------------------|
G|-------------------------------|----------------------------|
D|-4----4------------------------|----------------------------|
A|-------------------------------|-4----4--4--4---4---4--4----|
E|-----------0h2--2---2--2p0--0--|-0h2--2--2--2---2---2--2--0-|

(Things have never been so swell...)
e|--------------------------|------------------------------|
B|--------7-----------7-----|---------9--------------------|
G|------------7-------------|---------9-----9--------------|
D|-----7----------7---------|---------------9--------------|
A|-5------------5---------5-|-5/7--7-----------7--7--7/12\-|
E|--------------------------|------------------------------|

Pre-Chorus
[ Tab from: http://www.guitartabs.cc/tabs/n/nirvana/you_know_youre_right_tab_ver_10.html ]
(hey...)
e|------------------------------------|
B|------------------------------------|
G|------------------------------------|
D|-4---4---4---4---4----4---4---4---4-| x6
A|-4---4---4---4---4----4---4---4---4-|
E|-0h2-2---2---2---0----0h2-2---2---0-|


Chorus (fd = feedback)

e|-------------------|-------------------------|
B|-------------------|-------------------------|
G|-------------------|-------------------------|
D|-------------------|-------------------------|
A|-------------------|-------------------------|
E|-0h2~~~~~~~2fd~~~~~|-~~~~~~~~~~~~~~~~~~2b3.5~|

e|---------------------|-----------------------|
B|---------------------|-----------------------|
G|---------------------|-----------------------|
D|---------------------|-----------------------|
A|---------------------|-----------------------|
E|-~~~~~~~~~~~~~~~~~~~~|-(2)r3~~~~-b3.5(2)~~~~-|

Verse 2

(So, woman, come inside...)
Just bass

(Nothing really bothers her...)
e|---------------------------------------------|
B|------7----------7-----------9------------9\-|
G|----------7---------7--------------9---------|
D|----7----------7-----------9----9------9-----|
A|-5----------5----------5/7-------------------|
E|---------------------------------------------|

(I will move away from here...)
e|-------------------------|-----------------------------|
B|-------------------------|-----------------------------|
G|-------------------------|-----------------------------|
D|-------4---4-------------|-----------------------------|
A|-4---4---4-----4---4---4-|---4---4-----4-------4-----4-|
E|-0h2---------0---2-2-0---|-2---2-2p0-0---0-2-2-2p0-0---|
(pm)

e|-----------------------------|-----------------------------|
B|-----------------------------|-----------------------------|
G|-----------------------------|-----------------------------|
D|-------------4---------------|-----------------------------|
A|---4---4---------4---4-----4-|---4---4---4---4---4--4--0-0-|
E|-2---2-2p0-0---0---2-2p0-0---|-2-2-2-2---2---2---2--2--0-0-|

(Things have never been so swell...)
e|-----------------------|------------------------------|
B|-7---7----7---7--7---7-|-9---9--9--9--9--9---9-9-9-9\-|
G|-7---7----7---7--7---7-|-9---9--9--9--9--9---9-9-9-9\-|
D|-7---7----7---7--7---7-|-9---9--9--9--9--9---9-9-9-9\-|
A|-5---5----5---5--5---5-|-7---7--7--7--7--7---7-7-7-7\-|
E|-----------------------|------------------------------|

Pre-Chorus

(hey....)
e|------------------------------------|
B|------------------------------------|
G|------------------------------------|
D|-4---4---4---4---4----4---4---4---4-| x10
A|-4---4---4---4---4----4---4---4---4-|
E|-0h2-2---2---2---0----0h2-2---2---0-|

Chorus

(You know you're right)                     
e|-------------------------------|-----------------------|
B|---------------------------5b6-|-~~~~~~~~~/8b10-----8\-|
G|-------------------------------|-----------------------|
D|-------------------------------|-----------------------|
A|-------------------------------|-----------------------|
E|-0h2~~~~~-2~~~-0-0---2-2~~~----|-----------------------|

e|--------------------------|---------------------------|
B|-\2-----------------------|---------------------------|
G|--------------------------|---------------------------|
D|--------------------------|---------------------------|
A|--------------------------|---------------------------|
E|----2--0-0---2-2--2p0-0-0-|-0h2-2-2--2-2--2-2-2-2-2p0-|

e|-----------------------|--------------------|----5b6----------|
B|-----------------5b7~~-|-0------------------|----5b7~~~~--3-4-|
G|-----------------------|-----3--------4-3-4-|-3---------------|
D|-----------------------|--------------------|-----------------|
A|-----------------------|--------------------|-----------------|
E|-0h2-2--2--0-0---------|--------------------|-----------------|

e|---------------|---------------|---------------|---------------|
B|---5b7~~-------|---5b7~~-------|---5b7~~-------|---5b7~~-------|
G|-3-------4-3-4-|-3-------4-3-4-|-3-------4-3-4-|-3-------4-3-4-|
D|---------------|---------------|---------------|---------------|
A|---------------|---------------|---------------|---------------|
E|---------------|---------------|---------------|---------------|

e|---------------|---------------|----------------------------|
B|---5b7~~-------|---5b7~~-------|----5b7~~~~~(5)fd~~r5p0-0fd-|
G|-3-------4-3-4-|-3-------4-3-4-|-3--------------------------|
D|---------------|---------------|----------------------------|
A|---------------|---------------|----------------------------|
E|---------------|---------------|----------------------------|

e|--------------------------|----------------|------------|
B|-(fd.)~~~~~~~~------------|----------------|------------|
G|--------------------------|----------------|------------|
D|---------------0fd.~~~~~~-|----------------|------------|
A|--------------------------|----------------|------------|
E|--------------------------|-2---2fd~~~~~~~~|~~~~~~~~~~~-|

Outro

e|-------x---------|-------x--x-----x-|--------x------x-|
B|-----x---x-----x-|-----x------x-----|-----x-----------|
G|-x-----------x---|-x------------x---|-x---------x-----|
D|-----------------|------------------|-----------------|
A|-----------------|------------------|-----------------|
E|-0h2-------------|-0h2--------------|-0h2-------------|

e|---------x---------x-|------------------|
B|-------x---------x---|------------------|
G|-x-------------------|-x----------------|
D|---------------------|------------------|
A|---------------------|------------------|
E|-0h2-----------------|-0h2--------------|


Nirvana kicks ass. Enjoy.
Comments