Nirvana - With The Lights Out Disc 3 Chords & Tabs

 

With The Lights Out Disc 3 Chords & Tabs

Nirvana Chords & Tabs

Version: 1 Type: Tab 0 ratings
1 star 2 stars 3 stars 4 stars 5 stars
comments

With The Lights Out Disc 3 Tab

   
Wright this took me a f**king long time to write this song so plese rate it!
Tabbed by 90slithium


DISC THREE
1.  Rape Me
2.  Rape Me
3.  Scentless Apprentice
4.  Heart-Shaped Box
5.  I Hate Myself And Want To Die
6.  Milk It
7.  Moist Vagina
8.  Gallons Of Rubbing Alcohol Flow Through The Strip
9.  The Other Improv
10. Serve The Servants
11. Very Ape
12. Pennyroyal Tea
13. Marigold
14. Sappy
15. Jesus Doesn't Want Me For A Sunbeam
16. Do Re Mi
17. You Know You're Right
18. All Apologies

Rape Me
_____________________________________________________________________________

TUNING:

Standard down 1/2 step

INTRO/CHORUS/2nd and 3rd VERSES
e-----------------------------0---0--0---------------------------------------|
b-----------------------------0---0--0---3-3---3-3---------------------------|
g--2---2--2---5-5---5-5-0-0--------------0-0---0-0-0-0-----------------------|
d--2---2--2-0-5-5---5-5-0-0---2---2--2-0-0-0---0-0-0-0-----------------------|
a--0---0--0-0-3-3---3-3-0-0---2---2--2-0-----------0-0-----------------------|
e-----------0-----------0-0---0---0--0-0-3-3---3-3-0-0-----------------------|

1ST VERSE
e----------------------------------------------------------------------------|
b----------------------------------------------------------------------------|
g----2-----5-----------------------------------------------------------------|
d----2---5-5-0-----2------5--------------------------------------------------|
a-0---0-3----0-----2----5-5-0------------------------------------------------|
e----------------0--0-3-----0------------------------------------------------|

3 times, then...
e----------------------------------------------------------------------------|
b---------------------3-3-3-3------------------------------------------------|
g----2-----5----------0-0-0-0------------------------------------------------|
d----2---5-5-0-----2--0-0-0-0------------------------------------------------|
a-0---0-3----0-----2---------------------------------------------------------|
e----------------0--0-3-3-3-3------------------------------------------------|
		    w/dist.

BRIDGE
e----------------------------------------------------------------------------|
b----------------------------------------------------------------------------|
g-6-6-6-6-6-6-6-6------------------------------------------------------------|
d-6-6-6-6-6-6-6-6---7-7-7-7-5-4-3--------------------------------------------|
a-4-4-4-4-4-4-4-4---7-7-7-7-5-4-3--------------------------------------------|
e-------------------5-5-5-5-3-2-1-0------------------------------------------|

4 times, then...
e----------------------------------------0-----------------------------------|
b------------------------------------------0---------------------------------|
g-----------------------------------9----------------------------------------|
d-3--3-3---3-3-3---3/5--5-5--5-5-0--9----------------------------------------|
a-3--3-3---3-3-3---3/5--5-5--5-5-0--7----------------------------------------|
e-1--1-1---1-1-1---1/3--3-3--3-3-0--0----------------------------------------|

OUTRO CHORUS RIFF (second guitar)
e----------------------------------------------------------------------------|
b----------------------------------------------------------------------------|
g-2---2-2-5-5-5-7---9---9----------------------------------------------------|
d-2---2-2-5-5-5-7---9---9----------------------------------------------------|
a-0---0-0-3-3-3-5---7---7-0---5-3-2------------------------------------------|
e-------------------0---0-0-3------------------------------------------------|


_____________________________________________________________________________

Scentless Apprentice
_____________________________________________________________________________

TUNING:
Drop D tuned down 1/2 step

MAIN RIFF
e----------------------------------------------------------------------------|
b----------------------------------------------------------------------------|
g----------------------------------------------------------------------------|
d-4--4--X-4--0-4-4-4-4-X-4--0------------------------------------------------|
a-4--4--X-4--0-4-4-4-4-X-4--0------------------------------------------------|
e-4--4--X-4--0-4-4-4-4-X-4--0------------------------------------------------|


_____________________________________________________________________________

Heart-Shaped Box
_____________________________________________________________________________

TUNING:

Drop D 1/2 step down


INTRO/VERSE
e----------------------------------------------------------------------------|
b----------------------------------------------------------------------------|
g-----2------------------------------2---------------------------------------|
d---2---2-----3----------0-------2-2---2-----3------/4-4---4----0------------|
a-0---------3---3----0-------0---0---------3---3-------------3-3-------------|
e---------3--------0---0---0---0---------3--------0------0-------------------|

LAST TIME BEFORE CHORUS
e----------------------------------------------------------------------------|
b----------------------------------------------------------------------------|
g-----2------------------------------2---------------------------------------|
d---2---2-----3----------0---------2---2-----3------4-4-4-4-4---0------------|
a-0---------3---3----0-------0---0---------3---3--------------3-0------------|
e---------3--------0---0---0---0---------3--------0--------------------------|
						w/dist.
CHORUS (3 times)
e----------------------------------------------------------------------------|
b----------------------------------------------------------------------------|
g-2-2-4b5-----4b5------------*-4b5-------------------------------------------|
d-2-2-----3-3--------4-4-4-4-------------------------------------------------|
a-0-0-----3-3----------------3-----------------------------------------------|
e---------3-3------0---------------------------------------------------------|
		let ring

LAST PART OF CHORUS
e----------------------------------------------------------------------------|
b----------------------------------------------------------------------------|
g--------------------------4b5=5=5r4----------------------------------0------|
d-3-3-3-3-3-3-3-3---0-----------------3-3-3-3-3-3-3-3-----4-4-4-4-----0------|
a-3-3-3-3-3-3-3-3---0-----------------3-3-3-3-3-3-3-3-------------3-3-0------|
e-3-3-3-3-3-3-3-3---0-----------------3-3-3-3-3-3-3-3---0--------------------|

SOLO
e----------------------------------------------------------------------------|
b------8b10r8\6-----6b8r6\5--------5b6-r5-3-1-0------------------------------|
g----------------------------------------------------------------------------|
d-7-7-----------5-5------------3-3-------------------------------------------|
a----------------------------------------------------------------------------|
e----------------------------------------------------------------------------|
w/chorus

e----------------------------------------------------------------------------|
b----------------------------------------------------------------------------|
g-------------------------2--------------------------------------------------|
d-2-----------------------2--------------------------------------------------|
a-0-----------------------0--------------------------------------------------|
e----------------------------------------------------------------------------|
	                dist. off          (chorus off for 3rd verse)

ENDING OF LAST CHORUS
e----------------------------------------------------------------------------|
b----------------------------------------------------------------------------|
g--------------------------4b5=5=5r4-----------------------------------------|
d-3-3-3-3-3-3-3-3---0--------------------------------------------------------|
a-3-3-3-3-3-3-3-3---0--------------------------------------------------------|
e-3-3-3-3-3-3-3-3---0--------------------------------------------------------|

e----------------------------------------------------------------------------|
b----------------------------------------------------------------------------|
g----------------------------------------------------------------------------|
d-3-3-3-3-3-3-3-3-----4-4-4-4------------------------------------------------|
a-3-3-3-3-3-3-3-3-------------3-3-3------------------------------------------|
e-3-3-3-3-3-3-3-3---0--------------------------------------------------------|


_____________________________________________________________________________

I Hate Myself And Want To Die
_____________________________________________________________________________

TUNING:
DROP-D (Dropped down 1/2 step)


INTRO:

INTRO/VERSE
C5	  E5    D#5 E5  C5	   E5	D#5 D5
-----------------------I------------------------|I
-----------------------I------------------------|I
5---5--5-0-------------I5---5--5-0--------------|I
5---5--5-0-2--2--1--2--I5---5--5-0-2--2--1--0---|I
3---3--3-0-2--2--1--2--I3---3--3-0-2--2--1--0---|I
---------0-2--2--1--2--I---------0-2--2--1--0---|I

CHORUS
G5	A#5
---------------------|II
---------------------|II
--------3--3--3------|II
5---5---3--3--3--0---|II 7 times
5---5---1--1--1--0---|II
5---5------------0---|II

LAST REPEAT OF CHORUS
G5	A#5	B5
---------------------|I
---------------------|I
--------3--3--3--4---|I
5---5---3--3--3--4---|I
5---5---1--1--1--2---|I
5---5----------------|I

INTERLUDE (quite highly improvised)
Gtr.1 (right speaker, clean)
----------------I----------------I-----3-5-6--5-6-I8--6--5--0-------|I
0---------------I0---------------I0---------------I-----------------|I
0---------------I0---------------I0---------------I-----------------|I
----------------I----------------I----------------I-----------------|I
3---------------I3---------------I3---------------I-----------------|I
----------------I----------------I----------------I-----------------|I
Gtr.2 (left speaker, distortion)
----------------I----------------I----------------I-----------------|I
----------------I----------------I----------------I-----------------|I
----------------I----------------I----------------I-----------------|I
----------------I----5---4---3---I2---------------I-----------------|I
--------2---3---I5---------------I----------------I-----------------|I
2--4/5----------I----------------I----------------I-----------------|I

Gtr.1
---0-2-3--2-3-I5--5-3-5b6-5-3I2--3-2-0--0-1-I0--------------|I
--------------I--------------I--------------I----3-2-0------|I
--------------I--------------I--------------I---------------|I
--------------I--------------I--------------I---------------|I
--------------I--------------I--------------I---------------|I
--------------I--------------I--------------I---------------|I
Gtr.2
--------------I--------------I--------------I---------------|I
--------------I--------------I--------------I---------------|I
--------------I--------------I--------------I---------------|I
---3-2-0-2----I--------------I--------------I---------------|I
------------1-I--0-----------I--------------I---------------|I
--------------I-----5--3--2--I--------------I---------------|I

ENDING

C5	  E5    D#5 D5
------------------------|I
------------------------|I
5---5--5-0--------------|I
5---5--5-0-2--2--1--0---|I
3---3--3-0-2--2--1--0---|I
---------0-2--2--1--0---|I

_____________________________________________________________________________

Milk It
_____________________________________________________________________________

TUNING:

Standard down 1/2 step

CHORUS/INTRO
e----------------------------------------------------------------------------|
b----------------------------------------------------------------------------|
g-------9-9--------------------------------9-9-------------------------------|
d-8-8-8-9-9-5-5-----5-5-5-6-6---2----8-8-8-9-9-5-5-----5---------------------|
a-8-8-8-7-7-5-5-----5-5-5-6-6---2-0--8-8-8-7-7-5-5-----5---------------------|
e-6-6-6-----3-3-0---3-3-3-4-4-0-0-0--6-6-6-----3-3-0---3---------------------|

e----------------------------------------------------------------------------|
b----------------------------------------------------------------------------|
g-------9-9------------------------------------------------------------------|
d-8-8-8-9-9-5-5--------------------------------------------------------------|
a-8-8-8-7-7-5-5--------------------------------------------------------------|
e-6-6-6-----3-3-0---3--3-4-4b-0-0-0------------------------------------------|

CHORUS
e----------------------------------------------------------------------------|
b----------------------------------------------------------------------------|
g-------9-9------------------------------------------------------------------|
d-8-8-8-9-9-5-5-----5-5-5-6-6---2--------------------------------------------|
a-8-8-8-7-7-5-5-----5-5-5-6-6---2-0------------------------------------------|
e-6-6-6-----3-3-0---3-3-3-4-4-0-0-0------------------------------------------|

PRE-VERSE RIFF
e-------------------------------3--------------------------------------------|
b----------------------------------------------------------------------------|
g----------------------------3-----------------------------------------------|
d----------------------------------------------------------------------------|
a----------------------------------------------------------------------------|
e-6-6-6-6-6-6-6-6---0-0-0-0--------------------------------------------------|

VERSE
e----------------------------------------------------------------------------|
b----------------------------------------------------------------------------|
g----------------------------------------------------------------------------|
d----------------------------------------------------------------------------|
a----------------------------------------------------------------------------|
e-6-6-6-6-6-6-6-6---0-0-0-0-0-0-0-0------------------------------------------|


_____________________________________________________________________________

Moist Vagina
_____________________________________________________________________________

TUNING:

Standard, 1/2 step down

INTRO

E5  F#5  E5  F#5  E5  F#5  E5  F#5
--------I--------I--------I---------|I
--------I--------I--------I---------|I
--------I--------I--------I---------|I
--------I-------4I--------I-------4-|I
--------I--------I--------I---------|I
0---2---I0---2---I0---2---I0---2----|I
PM_____________       PM_________
let ring


VERSE RIFF

E5  F#5  E5  F#5  E5  F#5  E5  F#5  A5		      C
------2-I------2-I------2-I--------I-----------------I------------------|I
------0-I------0-I------0-I--------I-----------------I-5-5-5-5-5-5-5----|I
--------I--------I--------I-------0I-2-2-2-2-2-2-2-0-I-5-5-5-5-5-5-5-0--|I
--------I--------I--------I-------0I-2-2-2-2-2-2-2-0-I-5-5-5-5-5-5-5-0--|I
--------I--------I--------I-------0I-0-0-0-0-0-0-0-0-I-3-3-3-3-3-3-3-0--|I
0---2---I0---2---I0---2---I0---2---I-----------------I------------------|I


CHORUS
E5  F#5
------------|I
------------|I
------------|I
2---4-------|I
2---4-------|I
0---2-------|?*I

_____________________________________________________________________________

Gallons of Rubbing Alcohol Flow Through The Strip
_____________________________________________________________________________

TUNING:

e----------------------------------------------------------------------------|
b----------------------------------------------------------------------------|
g----------------------------------------------------------------------------|
d----------------------------------------------------------------------------|
a----------------------------------------------------------------------------|
e----------------------------------------------------------------------------|


_____________________________________________________________________________

The Other Improv
_____________________________________________________________________________

TUNING:

e----------------------------------------------------------------------------|
b----------------------------------------------------------------------------|
g----------------------------------------------------------------------------|
d----------------------------------------------------------------------------|
a----------------------------------------------------------------------------|
e----------------------------------------------------------------------------|


_____________________________________________________________________________

Serve The Servants
_____________________________________________________________________________

TUNING:

Tune down 1/2 step

VERSE
e--------------------------------------------------0--0----------0--0--------|
b--------------------------------3-----------------0--0----------0--0--------|
g-----------2-----2----------------------------------------------------------|
d--------1-----------0--2--2--2-----2--2-----4------------4------------2--0--|
a--2--2--------2-----------------------------4------------4--2---------2--0--|
e-----------------------------------------0--2--2------------0--0------------|

CHORUS
e-----------------------------------------------0----------------------------|
b--------------------0--6--6--6--6--------------0-----0--6--6--6--6--6-------|
g--------------------0--6--6--6--6--------------------0--6--6--6--6--6-------|
d--7-----7--7--7--7--0--6--6--6--6--7--7--7--7-----7--0--6--6--6--6--6-------|
a--7--7--7--7--7--7-----4--4--4--4--7--7--7--------7-----4--4--4--4--4-------|
e--5--5--5--5--5--5--------4--4--4--5--5--5--------5--------4--4--4--4-------|

e--------------0--------------------------------------0----------------------|
b--------------0-----0--6--6--6--6--6--6--------------0--6--6--6--6--6--6----|
g--------------------0--6--6--6--6--6--6-----------------6--6--6--6--6--6----|
d--7--7--7--------7--0--6--6--6--6--6--6--7--7--7--------6--6--6--6--6--6----|
a--7--7--7--7-----7-----4--4--4--4--4--4--7--7--7--7-----4--4--4--4--4--4----|
e--5--5--5--------5--------4--4-----------5--5--5-----------------4--4--4----|

e----------------------------------------------------------------------------|
b-----------------------------------5--5--5--x--x--x--5--5--5----------------|
g-----------------------------------5--5--5--x--x--x--5--5--5----------------|
d--4--4--4--4--4--4--4--4--4--------5--5--5--x--x--x--5--5--5----------------|
a--4--4--4--4--4--4--4--4--4--------3--3--3--x--x--x--3--3--3----------------|
e--2--2--2--2--2--2--2--2--2--3--3-----------x--x--x-------------------------|


e-------------13-------------------------------------------------------------|
b--11----x/--------x/--------------------------------------------------------|
g--11----x/--------x/--------------------------------------------------------|
d--10----x/--------x/--------------------------------------------------------|
a--9-----x/------------------------------------------------------------------|
e----------------------------------------------------------------------------|

_____________________________________________________________________________
[ Tab from: http://www.guitartabs.cc/tabs/n/nirvana/with_the_lights_out_disc_3_tab.html ]
Very Ape
_____________________________________________________________________________

TUNING:

Standard dropped down 1/2 step

MAIN RIFF
e----------------------------------------------------------------------------|
b----------------------------------------------------------------------------|
g----------------------------------------------------------------------------|
d-5/----7-7-X-5/8-8-X-5/-----------------------------------------------------|
a-5/----7-7-X-5/8-8-X-5/-----------------------------------------------------|
e-3/----5-5-X-3/6-6-X-3/-----------------------------------------------------|

VERSE ENDING:
e----------------------------------------------------------------------------|
b----------------------------------------------------------------------------|
g----------------------------------------------------------------------------|
d---7-7-X-5/8-8-8-0----------------------------------------------------------|
a---7-7-X-5/8-8-8-0----------------------------------------------------------|
e---5-5-X-3/6-6-6-0----------------------------------------------------------|

e----------------------------------------------------------------------------|
b----------------------------------------------------------------------------|
g----------------------------------------------------------------------------|
d-5--5-5--5-5-5--3-3-3-3-8-7-6-5---------------------------------------------|
a-5--5-5--5-5-5--3-3-3-3-8-7-6-5---------------------------------------------|
e-3--3-3--3-3-3--1-1-1-1-6-5-4-3---------------------------------------------|

VARIATION OF MAIN RIFF BEFORE CHORUS
e----------------------------------------------------------------------------|
b----------------------------------------------------------------------------|
g----------------------------------------------------------------------------|
d--7---7-5/8---8-5/----------------------------------------------------------|
a--7---7-5/8---8-5/----------------------------------------------------------|
e--5---5-3/6---6-3/----------------------------------------------------------|

CHORUS
e----------------------------------------------------------------------------|
b----------------------------------------------------------------------------|
g-----5-8--8---/12--12-------------------------------------------------------|
d-7---5-8--8---/12--12--5-5-5-5----------------------------------------------|
a-7---3-6--6---/10--10--5-5-5-5----------------------------------------------|
e-5---------------------3-3-3-3----------------------------------------------|


_____________________________________________________________________________

Pennyroyal Tea
_____________________________________________________________________________

TUNING:

Standard dropped down 1/2 step

VERSE
e--0----0----0-----0----0----0----------3----3----------3--------------------|
b--1--1-1--1-1-1---1--1-1--1-1-----0--0-0--0-0-0---0--0-0--------------------|
g--2--2-2--2-2-2---2--2-2--2-2-0---0--0-0--0-0-0---0--0-0--------------------|
d--2--2-2--2-2-2---2--2-2--2-2-0---0--0-0--0-0-0---0--0-0--------------------|
a--0--0-0--0-0-0---0--0-0--0-0-0---------------------------------------------|
e----------------------------------3--3-3--3-3-3---3--3-3-3-2-3-0------------|

e--0----0----0-----0----0----0----------3----3-------------------------------|
b--1--1-1--1-1-1---1--1-1--1-1-----0--0-0--0-0-0-----------------------------|
g--2--2-2--2-2-2---2--2-2--2-2-0---0--0-0--0-0-0------0-0-0-0-0-0-0----------|
d--2--2-2--2-2-2---2--2-2--2-2-0---0--0-0--0-0-0------0-0-0-0-0-0-0----------|
a--0--0-0--0-0-0---0--0-0--0-0-0---------------------------------------------|
e----------------------------------3--3-3--3-3-3---3-3-3-3-3-3-3-0-----------|
							w/dist.

CHORUS
e----------------------------------------------------------------------------|
b--5--5-5-5-5-5-5--/7--7-7-7-7-7-0-------------------------------------------|
g--5--5-5-5-5-5-5--/7--7-7-7-7-7-0---3-3-3-3-3-3-3-3---3-3-3-3-3-3-3-0-------|
d--5--5-5-5-5-5-5--/7--7-7-7-7-7-0---3-3-3-3-3-3-3-3---3-3-3-3-3-3-3-0-------|
a--3--3-3-3-3-3-3--/5--5-5-5-5-5-0---1-1-1-1-1-1-1-1---1-1-1-1-1-1-1-0-------|
e--------------------------------0-------------------------------------------|


_____________________________________________________________________________

Marigold
_____________________________________________________________________________

Tuning:Standard, half a step down

*The song is mostly played with chords on the strings E-G
and the strings B and E ring out quite randomly over the chords


INTRO
E5   C#5      B5   C5
------------I---------------|I
------------I---------------|I
9-9--6----6\I-4-4--5----5/I-|
9-9--6----6\I-4-4--5----5/I-|
7-7--4----4\I-2-2--3----3/I-|
------------I---------------|I

VERSE

E5   C#m7    Bsus4 Cmaj7
--0-------0-I-----------0--|I
--0----0--0-I---0--0--0-0--|I
9-9--6------I-4-4--5----5--|I
9-9--6------I-4-4--5----5--|I
7-7--4------I-2-2--3-------|I
------------I--------------|I
let ring

CHORUS
G		 A		  E5		    C#m7	     Cmaj7
----------------I------0---------I-------0---------I-------0---------I-------0----------|I
----------------I------0---------I-------0---------I-------0---------I-------0----------|I
4-4-4-4-4-4-4-4-I6-6-6-6-6-6-6-0-I-9-9-9-9-9-9-9-9-I-6-6-6-6-6-6-6-6-I-5-5-5-5-5-5-5-5--|I
5-5-5-5-5-5-5-5-I7-7-7-7-7-7-7-0-I-9-9-9-9-9-9-9-9-I-6-6-6-6-6-6-6-6-I-5-5-5-5-5-5-5-5--|I
5-5-5-5-5-5-5-5-I7-7-7-7-7-7-7---I-7-7-7-7-7-7-7-7-I-4-4-4-4-4-4-4-4-I-3-3-3-3-3-3-3-3--|I
3-3-3-3-3-3-3-3-I5-5-5-5-5-5-5---I-----------------I-----------------I------------------|I
let ring

-------0-0-0-0-0--|I
-------0-0-0-0-0--|I
-5-5-5-5-5-5-5-5--|I
-5-5-5-5-5-5-5-5--|I
-3-3-3-3-3-3-3-3--|I
------------------|I

ENDING
E5
0-
0-
9-
9-
7-
--


_____________________________________________________________________________

Sappy
_____________________________________________________________________________

TUNING:

Standard tuning dropped down 1/2 step

VERSES
D5		A#5    G5	A5		A#5	  C5
--------------I----------3-3---I---------------I-----------------|I
3--3-3--3-3-0-I--------3-3-3---I---------------I-----------------|I
2--2-2--2-2-0-I-3--3-0-0-0-0-0-I-2--2-2--2-2-0-I-3--3-3-3-5-5-0--|I
0--0-0--0-0-0-I-3--3-0-0-0-0-0-I-2--2-2--2-2-0-I-3--3-3-3-5-5-0--|I
------------0-I-1--1-0-------0-I-0--0-0--0-0-0-I-1--1-1-1-3-3-0--|I
--------------I------0-3-3-3-0-I---------------I-----------------|I

CHORUS
D5
---------------|I
3--3-3--3-3-0--|I
2--2-2--2-2-0--|I
0--0-0--0-0-0--|I
---------------|I
---------------|I

A#5		G5
--------------I-3--3-3--3-3-----|I
--------------I-3--3-3--3-3-----|I
3--3-3--3-3---I-0--0-0--0-0-----|I
3--3-3--3-3-0-I-0--0-0--0-0--0--|I 3 times
1--1-1--1-1-0-I--------------0--|I
------------0-I-3--3-3--3-3--0--|I

--------------I--------------I---------------|I
--------------I--------------I---------------|I
3--3-3--3-3-0-I-2------------I---------------|I
3--3-3--3-3-0-I-2------------I---------------|I
1--1-1--1-1-0-I-0------------I---------------|I
--------------I--------------I---------------|I

SOLO

-------------------I-------------------------|I
-------------------I-------------------------|I
-------------------I-------------------------|I
----------------10-I10-12-12-12/14-14-14-14--|I
----8-10-12--12----I-------------------------|I
8-10---------------I-------------------------|I

----------------------I--------------------------|I
----------------------I--------------------------|I
----------------------I--------------------------|I
-14b15--14---14-12-14-I-14b15==15-15-15-r14-12-\-|I
----------------------I--------------------------|I
----------------------I--------------------------|I

---------------I-------------------I----------------I-----------------------|I
---------------I-------------------I----------------I-----------------------|I
---------------I-------------------I----------------I-----------------------|I
---------------I-------------------I----------------I-----------------------|I
---------------I-------------------I----------------I-----------------------|I
7-8-8-7-7-5-3--I-3-1-3-3b5-3-1-1-1-I1-3-3-3-5-5-5-7-I-7-8-8-10-10-12-12-12--|I

-------------------------I------------------------|I
-------------------------I------------------------|I
-------------------------I------------------------|I
-------------------------I----------15--17-17-15--|I
------------12--14-14-15-I-15-17-17---------------|I
12b13-12-10--------------I------------------------|I

----------------------------I--------------------------|I
----------------------------I--------------------------|I
----------------------------I--------------------------|I
-17b19--17-17-15--12---12-14I14b15==15r14-14-12-12-12--|I
----------------------------I--------------------------|I
----------------------------I--------------------------|I

--------------------I-------------------------------I------------------------I-----------------|I
--------------------I-------------------------------I------------------------I-----------------|I
--------------------I-------------------------------I------------------------I-----------------|I
12--12-12--12-12-14-I-14-15-15-14-14h15p14-12-12-12-I12-14-14-14-12-12-12-10-I-10-9-9-7-7-5-5\-|I
--------------------I-------------------------------I------------------------I-----------------|I
--------------------I-------------------------------I------------------------I-----------------|I

I omitted most of the obvious fingerslides. something like bars 4-8...he just slides it with
practically one finger..


_____________________________________________________________________________

Jesus Doesn't Want Me For A Sunbeam
_____________________________________________________________________________

TUNING:

Tune down 1/2 step

INTRO
e--0---0--0--0--0--0---0---0--0--0-------------------------------------------|
b--0---0--0--0--0--3---3---3--3--0--------2--2--3--2-----2---2--3--0---------|
g--1---1--1--1--0--2---2---2--2--0-----2-----2--2--2-----2---2--2--0---------|
d--2---------2--0--0---0------0--0--2--------2--2--2-----2---2--2--0---------|
a--2---------2--0----------------0--0-----------------0----------------------|
e--0---------0---------------------------------------------------------------|

e--------------------0--0---0--0---------------------------------------------|
b-----0---------0----3--3---3--0--2---2--------2---2-------------------------|
g-----1---------1----2--2---2-----2------2--2--2---2--2--2-------------------|
d-----2--------------0--0---0-----2-------------------------2--0-------------|
a--2------------------------------0------------------------------------------|
e--0-------0-----------------------------------------------------------------|

VERSE
e----------------------------------------------------------------------------|
b--------------------------3---3----------------------2----------------------|
g--------------------2--2--2---2----0------2----2--2--2-------2--------2-----|
d--------------------0--0--------0-----2-----2--------------2----------2-----|
a--------2-------0---------------------0-----------------0-------0--0----0---|
e--0---0---0--0--------------------------------------------------------------|

e----------------------------------------------------------------------------|
b------------------3-----3-------------------------3--2----------------------|
g------------------2-----2---2---0--------2--------2--2----2--------2--------|
d------------------0--0--------0--------2-------2-----2----2--------2--------|
a---------------0--------------------0-------0-----------0----0--0-----0-----|
e--0---0--0--0---------------------------------------------------------------|

e----------------------------------------------------------------------------|
b----------------------------3--------------------2--------------2-----------|
g----------------------2--2--2-------2------------2-----2--------2------2----|
d-------------------0--0-------0--0--0--0--2---2--------2--2--2---------2----|
a----------------2----------------------0--0---------0-----0-------0--0---0--|
e--0---0--0--0---------------------------------------------------------------|

e----------------------------------------------------------------------------|
b--------------------------3------------------2--------3^2--2-----------2--0-|
g--------------------2-----2---2---0----------2--------2----2--2--2--2--2--0-|
d----------------0------0--------0-----2---2--------2-------2--2--2--2--2--0-|
a-------2------------------------------0---------0-------------0--0--0--0----|
e--0--0----0--0--------------------------------------------------------------|

CHORUS
e--0---0--0---0--0--0--0---0--0---0--0---------------------------------------|
b--0---0--0---0--0--0--3---3--3---3--3--0------------------------------------|
g--x---x--x---x--x--0--2---2--2---2--2--0------------------------------------|
d--2---2--2---2--2--0--0---0--0---0--0--0------------------------------------|
a--2---2--2---2--2----------------------0------------------------------------|
e--0---0--0---0--0-----------------------------------------------------------|

play that 3 times, then
e--0---0--0---0--0---0---0--0---0--0-----------------------------------------|
b--2---2--2---2--3---2---2--2---2--2--0--------------------------------------|
g--2---2--2---2--2---2---2--2---2--2--0--------------------------------------|
d--2---2--2---2--2---2---2--2---2--2--0--------------------------------------|
a--0---0--0---0--0---0---0--0---0--0--0--------------------------------------|
e----------------------------------------------------------------------------|


_____________________________________________________________________________

Do Re Mi
_____________________________________________________________________________

TUNING:

Standard full step down

VERSE

   E5               G#5              C#5              F#5
e----------------------------------------------------------------------|
b--9-----9-9-9-9---------------------------6---------------------------|
g--9---x-9-9-9-9----------6----------6---x-6-6-6-6----------4----------|
d--9---x-9-9-9-9-0--6---x-6-6-6-6-0--6---x-6-6-6-6-0--4---x-4-4-4-4-0--|
a--7---x-7-7-7-7-0--6---x-6-6-6-6-0--4---x-4-4-4-4-0--4---x-4-4-4-4-0--|
e----------------0--4---x-4-4-4-4-0----------------0--2---x-2-2-2-2-0--|

PRE CHORUS

   B5                       A5 C#5 C5
e------------------------------------|
b------------------------------------|
g--4---x-4-4---x-4--4---x-4-2---6-5--|
d--4---x-4-4---x-4--4---x-4-2-0-6-5--|
a--2---x-2-2---x-2--2---x-2-0-0-4-3--|
e------------------------------------|

    F#5                              E                 D5
e----------------------------------------------------------------------|
b------------------------------------9---------------------------------|
g------------------------------------9------------------7-7-7-7-7-7----|
d--4---x-4-4---x-4--4---x-4---4-4-0--9------------------7-7-7-7-7-7-0--|
a--4---x-4-4---x-4--4---x-4---4-4-0--7------------------5-5-5-5-5-5-0--|
e--2---x-2-2---x-2--2---x-2---2-2-0---------------------------------0--|

CHORUS
G#                  E
e------------------------------------|
b-------------------9---x-9-9-9-9----|
g-------------------9---x-9-9-9-9----|
d--6---x-6-6-6-6-0--9---x-9-9-9-9-0--|
a--6---x-6-6-6-6-0--7---x-7-7-7-7-0--|
e--4---x-4-4-4-4-0----------------0--|

POSTCHORUS
e-------------------|
b-------------------|
g-------------------|
d--2-1--------------|
a------4-2-0--------|
e------------4-2-0--|


_____________________________________________________________________________

You Know You're Right
_____________________________________________________________________________

TUNING:

Standard 1/2 step down

INTRO/VERSE
e----------------------------------------------------------------------------|
b----------------------------------------------------------------------------|
g----------------------------------------------------------------------------|
d--------------4-------------------------------------------------------------|
a-----4---4-------4-----4----4-----4---4----4--4-----4----4------------------|
e-0h2---2----0------2---2p0-0--0h2---2----0------2---2p0-0-------------------|


VERSE AND CHORUS END
e----------------------------------------------------------------------------|
b----------------------------------------------------------------------------|
g-7---7--7-7---7-7-7--7-7-7-/-9---9--9-9---9-9-9--9-9-9-0--------------------|
d-7---7--7-7---7-7-7--7-7-7-/-9---9--9-9---9-9-9--9-9-9-0--------------------|
a-5---5--5-5---5-5-5--5-5-5-/-7---7--7-7---7-7-7--7-7-7-0--------------------|
e----------------------------------------------------------------------------|

CHORUS
e----------------------------------------------------------------------------|
b----------------------------------------------------------------------------|
g----------------------------------------------------------------------------|
d--4---4-4-4-4-4-4--4-4-4--4-4-4-4-------------------------------------------|
a--4---4-4-4-4-4-4--4-4-4--4-4-4-4-------------------------------------------|
e--0p2-2-2-2-0-0-0--2-2-2--2-2-0-0-------------------------------------------|


_____________________________________________________________________________

All Apologies
_____________________________________________________________________________

TUNING:

Drop D down 1/2 step

INTRO/VERSES/OUTRO
e----------------------------------------------------------------------------|
b----------------------------------------------------------------------------|
g----------------------------------------------------------------------------|
d--------------------------------/12-12-10-9---------------------------------|
a-9-9-10-9-/12-12-10-9---9-9-10-9-------------9-9-10-9-/12-12-10-9-----------|
e-0----------------------0-0-0--0-------------0------0--0--------------------|

e----------------------------------------------------------------------------|
b----------------------------------------------------------------------------|
g-----------11-11-9----------------------------------------------------------|
d--------------0----12-------------------------------------------------------|
a--9-9-10-9------------------------------------------------------------------|
e--0-0-0--0------------------------------------------------------------------|

CHORUS
e----------------------------------------------------------------------------|
b----------------------------------------------------------------------------|
g----------------------------------------------------------------------------|
d-5-5-5-5-5-5-5--------------------------------------------------------------|
a-5-5-5-5-5-5-5--------------------------------------------------------------|
e-5-5-5-5-5-5-5--------------------------------------------------------------|

and then
e----------------------------------------------------------------------------|
b--2-------------------------------------------------------------------------|
g--2-------------------------------------------------------------------------|
d--2-------------------------------------------------------------------------|
a--0-------------------------------------------------------------------------|
e----------------------------------------------------------------------------|

this is it!!!!!
Comments