Nirvana - Tourettes Chords & Tabs

 

Tourettes Chords & Tabs

Nirvana Chords & Tabs

Version: 4 Type: Tab 0 ratings
1 star 2 stars 3 stars 4 stars 5 stars
comments

Tourettes Tab

Band: Nirvana
Song: Tourettes
Album: In Utero
Tabbed by Ignacio "Coco" Vespoli
cocofuhgawz@hotmail.com

_____________________________________________________________________________

Tuning: normal



Intro 
e|-------------------------------------|
B|-------------------------------------|
G|----------3-3-3-3--4-4-4-4-----------|
D|-4-4-4-4--3-3-3-3--4-4-4-4--5-5-5-5--|
A|-4-4-4-4--1-1-1-1--2-2-2-2--5-5-5-5--|
E|-2-2-2-2--------------------3-3-3-3--|


Riff 1 (two guitars)
e|-------------------------------------|
B|-------------------------------------|
G|----------3-3-3-3--4-4-4-4-----------|
D|-4-4-4-4--3-3-3-3--4-4-4-4--5-5-5-5--|
A|-4-4-4-4--1-1-1-1--2-2-2-2--5-5-5-5--|
E|-2-2-2-2--------------------3-3-3-3--|

[ Tab from: http://www.guitartabs.cc/tabs/n/nirvana/tourettes_tab_ver_4.html ]
Riff 2
e|-----------------|
B|-----------------|
G|---3p4-3-3-4-(3)-|
D|-4---------------|
A|-4---------------|
E|-2---------------|


End (two guitars)
e|-------|
B|-------|
G|-------|
D|---4---|
A|---4---|
E|---2---|



(Intro)x8
(Riff 2)x8
(Riff 1)x4 
(Riff 2)x8
(Riff 1)x8
(End)x1
_____________________________________________________________________________
Lyrics:

*spoken*

Mayday, every day, my day
Could've had a heart attack, my heart
We don't know anything, my heart
We all want something fair for my heart

hey hey... 

Out of town, out of fire is my heart
Queen of liars out to take my heart
One more at the phone of my heart
One more at the door of my heart

hey hey...

Mean heart
Cold heart            
Cold heart
Cold heart
Cold heart
Cold heart
Cold heart
Cold heart



(x) = Palm mute

_____________________________________________________________________________

comments? please e-mail me to cocofuhgawz@hotmail.com
Comments