Nirvana - Token Easter Song Chords & Tabs

 

Token Easter Song Chords & Tabs

Nirvana Chords & Tabs

Version: 1 Type: Bass Tab 0 ratings
1 star 2 stars 3 stars 4 stars 5 stars
comments

Token Easter Song Bass Tab

Tuning-Standard

Intro
G----------|
D----------|
A---1------|
E-1---1-0--|

Main Riff (Also Played During Guitar Solo)
G----------1h2---|
D----------------|
A---1------------|
E-1---1-0--------|
[ Tab from: http://www.guitartabs.cc/tabs/n/nirvana/token_easter_song_btab.html ]
Chorus
G-----------------|
D-----------------|
A-----------------|
E--3-3-3-2-1-1-0--|

Intro x4
Main Riff x24
Chorus x8
Main Riff x20
Chorus x8
Main Riff x22
Chorus x8
Main Riff x16

This is my first bass tab, I actually play guitar
but I couldn't find this bass tab anywhere else
so if you have any comments or corrections email
me at lovebuzz_101@yahhoo.com
Comments