Nirvana - The Pill Chords & Tabs

 

The Pill Chords & Tabs

Nirvana Chords & Tabs

Version: 1 Type: Tab 0 ratings
1 star 2 stars 3 stars 4 stars 5 stars
comments

The Pill Tab

#----------------------------------PLEASE NOTE---------------------------------#
#This file is the author's own work and represents their interpretation of the #
#song. You may only use this file for private study, scholarship, or research. #
#------------------------------------------------------------------------------#
#

 Nirvana- The Pill

This is by far the best Nirvana song it consists of many little riffs
from the following!

Anything you like to say or add! Contact me at millg@bc1.com

INTRO

--------------------------------|--------------------------------|
--------------------------------|--------------------------------|
--------------------------------|--------------------------------|
--------------------------------|--------------------------------|
--------------------------------|--------------------------------|
(3)-----R-------1---------------|--------------------------------|

RIFF 1
--------------------------------|-- -- -- -- --------------------|
--------------------------------|-- -- -- -- --------------------|
--------------------------------|-- -- -- -- --------------------|
5-------8-------8---10--10------|13 12 13 12 13--8---8---10--10--|
3-------6-------6---8---8-------|11 10 11 10 11--6---6---8---8---|
--------------------------------|-- -- -- -- --------------------|

RIFF 2
--------------------------------|--------------------------------|
--------------------------------|--------------------------------|
--------------------------------|--------------------------------|
--------------------------------|6-5-6-5-6p5---------------------|
3-------6-------6---8---8-------|------------6---6---8---8-------|
--------------------------------|--------------------------------|

RIFF 3
--------------------------------|--------------------------------|
--------------------------------|--------------------------------|
--------------------------------|--------------------------------|
------------1-------------------|--------------------------------|
3---3---3-----------3-------2---|1---1---1-------0---1---1---2---|
--------------------------------|--------------1-----------------|

--------------------------------|--------------------------------|
--------------------------------|--------------------------------|
--------------------------------|--------------------------------|
------------1-------------------|--------------------------------|
3---3---3-----------3-------2---|1---1---1-----------------------|
--------------------------------|--------------------------------|
[ Tab from: http://www.guitartabs.cc/tabs/n/nirvana/the_pill_tab.html ]
RIFF 4
--------------------------------|--------------------------------|
--------------------------------|--------------------------------|
--------------------------------|--------------------------------|
10------------------------------|8-------------------------------|
8-------------------------------|6-------------------------------|
--------------------------------|--------------------------------|

RIFF 5
--------------------------------|--------------------------------|
--------------------------------|--------------------------------|
------------------------3-4-5---|------------------------3-4-5---|
5---5-------3---3-4-5-----------|5---5-------3---3-4-5-----------|
3---3---3-6---------------------|3---3---3-6---------------------|
--------------------------------|--------------------------------|

RIFF 6
--------------------------------|--------------------------------|
--------------------------------|--------------------------------|
7---5---------------------------|--------------------------------|
------------7-------6-------5---|----3---------------------------|
--------------------------------|------------3---3-h-5---5-------|
--------------------------------|--------------------------------|

RIFF 7
--------------------------------|--------------------------------|
--------------------------------|--------------------------------|
--------------------------------|--------------------------------|
--------------------------------|--------------------------------|
--------------------------------|--------------------------------|
(3)-------------R---------------|1-------------------------------|

RIFF 8A
--------------------------------|--------------------------------|
--------------------------------|--------------------------------|
--------------------------------|--------------------------------|
--------------------------------|--------------------------------|
8-p-6---8-------------------6h8-|6-------------------------------|
--------------------------------|--------------------------------|

--------------------------------|--------------------------------|
--------------------------------|--------------------------------|
--------------------------------|_____3_____-----_____3_____-----|
--------------------------------|5----6----5-----6----5(6)-------|
8-p-6---8-----------------------|--------------------------6-----|
--------------------------------|--------------------------------|
                                            
          tr.
RIFF 8B (end of song)
--------------------------------|
--------------------------------|
--------------------------------|
--------------------------------|
8-p-6---8-----------------------|
--------------------------------|

Some explanations:
1.For the intro and RIFF 7 you must fret the low E string on the 1st
fret, prebend a whole step and then release (that's what the R means).
2.Blank columns (as in Riff 1) do not count in timing. They are used 
only to distinguish the tab numbers.
3.p=p
ull-off h=hammer on


 ~~~~~~~~~~~~~~~~~~~~~~~~~~~~~~~~~~~~~~~~~~~~~~~~    
* Alternative Music/Guitar Page                   
* Visit my Web Site at:                           
* http://www.angelfire.com/tx/jagstang/index.html 
* Email me: mailto:millg@bc1.com                  
* Steve Miller
Comments