Nirvana - The Other Improv Chords & Tabs

 

The Other Improv Chords & Tabs

Nirvana Chords & Tabs

Version: 1 Type: Tab 0 ratings
1 star 2 stars 3 stars 4 stars 5 stars
comments

The Other Improv Tab

Submitted by: Brian
E-Mail: NirVanA19866@aol.com
Song Title: The Other Improv
Artist: Nirvana
Album: With The Lights Out(Box Set)Cd 3
Tunning: Drop D

Verse:

e-----------------------------------------|
B-----------------------------------------|
G-6-----------6---------------------------| Listen To The Song
D-6-1-4-4-3-1-6-1-4-4-3-1-----------------| To See How Many Mesures
A-4-1-4-4-3-1-4-1-4-4-3-1-----------------| You Do This
D---1-4-4-3-1---1-4-4-3-1-----------------|

Interlube:
[ Tab from: http://www.guitartabs.cc/tabs/n/nirvana/the_other_improv_tab.html ]
e-------------------------------------------------|
B-------------------------------------------------| Do This 4x And
G-6-6-6-6-6-6-6-6-4-4-4-4-4-4-4-4-2-2-2-2-2-2-2-2-| Then Go Back To
D-6-6-6-6-6-6-6-6-4-4-4-4-4-4-4-4-2-2-2-2-2-2-2-2-| The Verse (*Their Is No
A-4-4-4-4-4-4-4-4-2-2-2-2-2-2-2-2-0-0-0-0-0-0-0-0-| Guitar Played In The
D-------------------------------------------------| Chours*)

Last Verse:

e----------------------------------------------|
B----------------------------------------------|
G-6----6-6--6----6-6----6----------------------| Do This Until Its Time
D-6----6-6--6----6-6----6----------------------| For The Outro
A-4----4-4--4----4-4----4----------------------|
D----------------------------------------------|

--The Outro Is A Improvised Solo Kinda Like The Last Chours Of YKYR--
If You Have Any Corrections E-Mail Me
Comments