Nirvana - Territorial Pissings Chords & Tabs

 

Territorial Pissings Chords & Tabs

Nirvana Chords & Tabs

Version: 2 Type: Tab 0 ratings
1 star 2 stars 3 stars 4 stars 5 stars
comments

Territorial Pissings Tab

Territorial Pissings                               
                                                             
E||------------------|------------------|--------------------|
B||------------------|------------------|--------------------|
G||------------------|------------------|--------------------|
D||------------------|------------------|--7--------7--------|
A||------------------|------------------|--7--------7--------|
E||------------------|------------------|--5--------5--------|


                                                           
-------------------|-------------------|------------------|
-------------------|-------------------|------------------|
-------------------|-------------------|------------------|
----------7--------|--7----------------|------------------|
----------7--------|--7----------------|------------------|
----------5--------|--5----------------|------------------|


                                                               
|---------------------------|---------------------------------|
|---------------------------|---------------------------------|
|*-----------------------0--|--10--10--10--10--10--10--10--0--|
|*--7--7--7--7--7--7--7--0--|--10--10--10--10--10--10--10--0--|
|---7--7--7--7--7--7--7--0--|--8---8---8---8---8---8---8---0--|
|---5--5--5--5--5--5--5-----|---------------------------------|

[ Tab from: http://www.guitartabs.cc/tabs/n/nirvana/territorial_pissings_tab_ver_2.html ]
                                                     11x                      6x
--------------------------|---------------------------||----------------------||
--------------------------|---------------------------||----------------------||
--7--7--7--7--7--7--7--7--|--7--7--7--7--7--7--7-----*||*--------------------*||
--7--7--7--7--7--7--7--7--|--7--7--7--7--7--7--7--0--*||*------7--------7----*||
--5--5--5--5--5--5--5--5--|--5--5--5--5--5--5--5--0---||-------7--------7-----||
--------------------------|-----------------------0---||-------5--------5-----||


                                                                
-----------------------||-------------------|------------------|
-----------7-----------||-------------------|------------------|
-------------7---------||*------------------|------------------|
------7--------7-------||*------------------|------------------|
------7-----------7----||-------------------|------------------|
------5-----------5----||-------------------|------------------|


                                                                    
------------------|-------------------||---------------------------|
------------------|-------------------||---------------------------|
------------------|------------------*||*-----------------------0--|
------------------|------------------*||*--7--7--7--7--7--7--7--0--|
------------------|-------------------||---7--7--7--7--7--7--7--0--|
------------------|-------------------||---5--5--5--5--5--5--5-----|


                                                             
---------------------------------|--------------------------|
---------------------------------|--------------------------|
--10--10--10--10--10--10--10--0--|--7--7--7--7--7--7--7--7--|
--10--10--10--10--10--10--10--0--|--7--7--7--7--7--7--7--7--|
--8---8---8---8---8---8---8---0--|--5--5--5--5--5--5--5--5--|
---------------------------------|--------------------------|


                           7x                     
---------------------------||-------------------||
---------------------------||-------------------||
--7--7--7--7--7--7--7-----*||-------------------||
--7--7--7--7--7--7--7--0--*||--7----------------||
--5--5--5--5--5--5--5--0---||--7----------------||
-----------------------0---||--5----------------||



Comments