Nirvana - Teen Spirit Chords & Tabs

 

Teen Spirit Chords & Tabs

Nirvana Chords & Tabs

Version: 1 Type: Tab 2 ratings
1 star 2 stars 3 stars 4 stars 5 stars
comments

Teen Spirit Tab

#----------------------------------PLEASE NOTE--------------------------------#
#This file is the author's own work and represents their interpretation of the#
#song. You may only use this file for private study, scholarship, or research.#
#-----------------------------------------------------------------------------#
#-- File created with Instab - http://www.pconline.com/~smcarey/instab.html --#
#-----------------------------------------------------------------------------#

Author/Artist: Nirvana
Title: Teen Spirit
Transcribed by: Aaron Stark
Email: MolsonG88@aol.com

------------------------------------------------------------------------------
------------------------------------------------------------------------------
-------------3-3-------------6-6----------------------------------------------
-3-3-3-xx-xx-3-3-6-6-6-xx-xx-6-6----------------------------------------------
-3-3-3-xx-xx-1-1-6-6-6-xx-xx-4-4----------------------------------------------
-1-1-1-xx-xx-----4-4-4-xx-xx--------------------------------------------------
    Intro: Play 6 times                                                       

--1---------------------------------------------------------------------------
-1----------------------------------------------------------------------------
------------------------------------------------------------------------------
------------------------------------------------------------------------------
------------------------------------------------------------------------------
------------------------------------------------------------------------------
  Play 6 times after Intro                                                    

------------------------------------------------------------------------------
------------------------------------------------------------------------------
-------------3-3-------------6-6----------------------------------------------
-3-3-3-xx-xx-3-3-6-6-6-xx-xx-6-6----------------------------------------------
-3-3-3-xx-xx-1-1-6-6-6-xx-xx-4-4----------------------------------------------
-1-1-1-xx-xx-----4-4-4-xx-xx--------------------------------------------------
  Play 6 times after that                                                     
[ Tab from: http://www.guitartabs.cc/tabs/n/nirvana/teen_spirit_tab.html ]
------------------------------------------------------------------------------
------------------------------------------------------------------------------
------------------------------------------------------------------------------
-3-3-2-3-4-3b-3-3-2-3-8-8-6---------------------------------------------------
-3-3-2-3-4----3-3-2-3-8-8-6---------------------------------------------------
-1-1---1-2----1-1---1-6-6-4---------------------------------------------------
 Play 2 times after that                                                      

---1--------------------------------------------------------------------------
-1----------------------------------------------------------------------------
------------------------------------------------------------------------------
------------------------------------------------------------------------------
------------------------------------------------------------------------------
------------------------------------------------------------------------------
   Play 6 times                                                               

------------------------------------------------------------------------------
------------------------------------------------------------------------------
-------------3-3-------------6-6----------------------------------------------
-3-3-3-xx-xx-3-3-6-6-6-xx-xx-6-6----------------------------------------------
-3-3-3-xx-xx-1-1-6-6-6-xx-xx-4-4----------------------------------------------
-1-1-1-xx-xx-----4-4-4-xx-xx--------------------------------------------------
 Play 6 times                                                                 

------------------------------------------------------------------------------
------------------------------------------------------------------------------
------------------------------------------------------------------------------
-3-3-2-3-4-3b-3-3-2-3-8-8-6---------------------------------------------------
-3-3-2-3-4----3-3-2-3-8-8-6---------------------------------------------------
-1-1---1-2----1-1---1-6-6-4---------------------------------------------------
 Play 2 times         After that there is like a 1 Min solo                   

------------------------------------------------------------------------------
------------------------------------------------------------------------------
-------------3-3-------------6-6----------------------------------------------
-3-3-3-xx-xx-3-3-6-6-6-xx-xx-6-6----------------------------------------------
-3-3-3-xx-xx-1-1-6-6-6-xx-xx-4-4----------------------------------------------
-1-1-1-xx-xx-----4-4-4-xx-xx--------------------------------------------------
   After solo play this 12 times to end it                                    

Comments