Nirvana - Stay Away Chords & Tabs

 

Stay Away Chords & Tabs

Nirvana Chords & Tabs

Version: 6 Type: Bass Tab 0 ratings
1 star 2 stars 3 stars 4 stars 5 stars
comments

Stay Away Bass Tab

   
----------------------------------------------------------------------------
			     Staw Away - Nirvana
----------------------------------------------------------------------------

Tabbed By :gmasta14 
e-mail: 

Tuning:EADG   (((((Note: you need to play it fast for it to sound right))))

         
Intro
G|------------------------------------------------------------------|
D|-00-0------33-----------------------------------------------------|8x
A|------33-3------0h1-0h1-------------------------------------------|
E|------------------------------------------------------------------|

Verse 1
G|-----------------------------------------------------------------|
D|-00-0------33----------------------------------------------------|14x
A|------33-3----0h1-0h1--------------------------------------------|
E|-----------------------------------------------------------------|

Chorus
G|-----------------------------------------------------------------|
D|-00-0------33----------------------------------------------------|4x
A|------33-3----0h1-0h1--------------------------------------------|
E|-----------------------------------------------------------------|
  Stay away!

Verse 2
G|-----------------------------------------------------------------|
D|-00-0------33----------------------------------------------------|4x
A|------33-3----0h1-0h1--------------------------------------------|
E|-----------------------------------------------------------------|


Chorus
G|-----------------------------------------------------------------|
D|-00-0----33------------------------------------------------------|4x
A|-----33-3--0h1-0h1-----------------------------------------------|
E|-----------------------------------------------------------------|
  Stay away!
[ Tab from: http://www.guitartabs.cc/tabs/n/nirvana/stay_away_btab_ver_6.html ]
Fill
G|-----------------------------------1-----------------------------|
D|-0-00-0-3-1-0----------3-1-0-00-0-3-1----------3-1---------------|2x
A|-----3-------0-00-0-1-3--------3-----0-00-0-1-3------------------|
E|-----------------------------------------------------------------|

G|-----------------------------------------------------------------|
D|-00-0----33------------------------------------------------------|4x
A|-----33-3--0h1-0h1-----------------------------------------------|
E|-----------------------------------------------------------------|

Verse3
G|-----------------------------------------------------------------|
D|-00-0----33------------------------------------------------------|4x
A|-----33-3--0h1-0h1-----------------------------------------------|
E|-----------------------------------------------------------------|

Chorus
G|-----------------------------------------------------------------|
D|-00-0----33------------------------------------------------------|4x
A|-----33-3--0h1-0h1-----------------------------------------------|
E|-----------------------------------------------------------------|

Fill
G|-----------------------------------1-----------------------------|
D|-0-00-0-3-1-0----------3-1-0-00-0-3-1----------3-1---------------|2x
A|-----3-------0-00-0-1-3--------3-----0-00-0-1-3------------------|
E|-----------------------------------------------------------------|

Ending
G|-----------------------------------------------------------------|
D|-00-0----33--------0-00-0-3-1-0----------3-1---------------------|
A|-----33-3--0h1-0h1-----3-------0-00-0-1-3---111111111111111111111|
E|-----------------------------------------------------------------|

G|-----------------------------------------------------------------|
D|-----------------------------------------------------------------|
A|111111111111111111111111111111111111111-1-1-1~~~~----------------|
E|-----------------------------------------------------------------|

| /  slide up
| \  slide down
| h  hammer-on
| p  pull-off
| ~  let ring out
| +  harmonic
| x  Mute note

Well thats it Im pretty sure its right. please rate!!! 
============================================================================
Comments