Nirvana - Stay Away Chords & Tabs

 

Stay Away Chords & Tabs

Nirvana Chords & Tabs

Version: 5 Type: Bass Tab 0 ratings
1 star 2 stars 3 stars 4 stars 5 stars
comments

Stay Away Bass Tab

Nevermind
aka- pay to play


Verse: (and intro and outro)
G]------------------------------------|
D]-0-0--/3----------3-3---------------|
A]----------2-2--0-------3-3-0-3-4----|
E]------------------------------------|

Chorus:
G]---------------------------------|
D]-0-0--/3--------3-3--0-----------|
A]----------0-2-3---------3--0-----|
E]---------------------------------|
[ Tab from: http://www.guitartabs.cc/tabs/n/nirvana/stay_away_btab_ver_5.html ]
Bridge:
G]--------------------------------------------------|
D]-0-0-0----0--3--0------------------------4--------|
A]-------3-----------3-0----------4-----4----4------|
E]-----------------------3--2--2-----2----------2---|

Bridge 2:
G]----------------------------------------------------------------|
D]-0-0-0----0--3-0-3-3/7-5-3-0-------------------4-4-4-4-4-4-4----|
A]-------3----------------------------4-----4---------------------|
E]------------------------------2--2-----2------------------------|

ORDER:

Intro
Verse
Chorus
Verse
Chorus
Bridge
Verse
Chorus
Bridge
Verse
Outro

Send your corrections to domonominic@hotmail.com and
i'll tell you why you're wrong...
Comments