Nirvana - Stay Away Chords & Tabs

 

Stay Away Chords & Tabs

Nirvana Chords & Tabs

Version: 3 Type: Bass Tab 0 ratings
1 star 2 stars 3 stars 4 stars 5 stars
comments

Stay Away Bass Tab

Track: STAY AWAY
Artist: Nirvana
Album: Nevermind


INTRO+VERSE+CHORUS

G--------------------------
D--------------------------
A------55-5h7-22-2-77------
E---------------------7-578

BASS SOLO THINGY

G------------------------
D------------5-------33h5
A--5-5-5-3-5---5-3-5-----
E------------------------
[ Tab from: http://www.guitartabs.cc/tabs/n/nirvana/stay_away_btab_ver_3.html ]
G------------------------
D------------------------
A------------------------
E--2-2-2-0-2-5-2-0-2-55h7

G--------------------------
D------------3-555h7-5-3---
A--5-5-5-3-5-------------5-
E--------------------------



That's it! Easy enough, hmm?
Oh, yeah, in the main riff, it's easier to play the B on the 7th fret
of the E string, I just got used to playing it the way I have hear.
Have fun!
Comments