Nirvana - Spank Thru Chords & Tabs

 

Spank Thru Chords & Tabs

Nirvana Chords & Tabs

Version: 4 Type: Tab 0 ratings
1 star 2 stars 3 stars 4 stars 5 stars
comments

Spank Thru Tab

Spank Thru SOLO!
PICK UP AT THE END OF THE "IVE BEEN LOOKIN FOR DAYS GLOW!" PART...YOU KNOW WHERE...
WHERE THE SOLO STARTS


e-------------------------10/15--15b-15b-15b-15b-15b-15-15-15-16-15-15
B-----------------------0--9/14--14b-14b-14b-14b-14b-15-15-15-16-15-15
G--------------2b-2b-2b-0---------------------------------------------
D---------------------------------------------------------------------
A---------------------------------------------------------------------
E-(feedback)0---------------------------------------------------------
[ Tab from: http://www.guitartabs.cc/tabs/n/nirvana/spank_thru_tab_ver_4.html ]
e-14-14-14-14-14-14-14-14-----------------------------------------
B-14-14-14-14-14-14-14-14-------------------------------0---0---0-
G-----------------------------------------------12-14-14B-14B-14B-
D-------------------------0-0-0-12-12--12/14-12-------------------
A--------------------------------------------12-------------------
E-----------------------------------------------------------------

e-----------------------------------------0-0-0---------------------------------
B-----------------------------------------0-0-0-16B-----------------------------
G-12-0-7-9-9-7---------7-9-14----14----14-------16B---------------9-9-9-9-------
D--------------9-7-7-9--------12----12----------------------5-4-5/7-7-7-7-------
A---------------------------------------------------7-5-------------------0-0-0-
E-------------------------------------------------------5-3---------------0-0-0-

THEN GO BACK TO "IVE BEEN LOOKIN FOR DAYS GLOW!"

THAT SHOULD BE CORRECT....no wait it is correct...i submited a while ago but it
was only half the solo....so heres the whole thing!
IF YOU HAVE QUESTIONS/COMMENTS ABOUT HOW BADASS NIRVANA IS,
EMAIL ME AT ADOOTY@YAHOO.COM
MY NICKNAME IS KURDTKOBAIGN
Comments