Nirvana - Son Of A Gun Chords & Tabs

 

Son Of A Gun Chords & Tabs

Nirvana Chords & Tabs

Version: 6 Type: Tab 0 ratings
1 star 2 stars 3 stars 4 stars 5 stars
comments

Son Of A Gun Tab

Good cover of Vaselines by legendary Nirvana. Enjoy it!

intro and verses  (w/crunch distortion) x8

e------------------------------------------------------||
b------------------------------------------------------||
g------------------------------------------------------||
d--7-7-22-2--1212-12--22-2-----------------------------||
a--7-7-22-2--1212-12--22-2-----------------------------||
e--5-5-00-0--1010-10--00-0-----------------------------||


chorus x4
e----------------------------------------------------------------------------||
b----------------------------------------------------------------------------||
g----------------------------------------------------------------------------||
d-5-5-5-55--10-10-10-1010--12-12-12-1212--10-10-10-1010----------------------||
a-5-5-5-55--10-10-10-1010--12-12-12-1212--10-10-10-1010----------------------||
e-3-3-3-33--8--8--8--8-8---10-10-10-1010--8--8--8--8-8-----------------------||


verse x4

chorus x4
[ Tab from: http://www.guitartabs.cc/tabs/n/nirvana/son_of_a_gun_tab_ver_6.html ]
bridge
e-------------------------------------||
b-------------------------------------||
g-------------------------------------||
d-5-5-5555--12-12-12121212------------||
a-5-5-5555--12-12-12121212---X 2------||
e-3-3-3333--10-10-10101010------------||


e------------------------------------------------------------||
b------------------------------------------------------------||
g------------------------------------------------------------||
d-7-7-7777--14-14-14141414-----------------------------------||
a-7-7-7777--14-14-14141414---X 2-----------------------------||
e-5-5-5555--12-12-12121212-----------------------------------||


e-------------------------------------||
b-------------------------------------||
g-------------------------------------||
d-5-5-5555--12-12-12121212------------||
a-5-5-5555--12-12-12121212---X 4------||
e-3-3-3333--10-10-10101010------------||


verse x 4

chorus x8

e-----
b-----
g-----
d-5----| let ring and gradually slow down the volume
a-5----|
e-3----|

That's All Folks!

Ricky
Comments