Nirvana - Son Of A Gun Chords & Tabs

 

Son Of A Gun Chords & Tabs

Nirvana Chords & Tabs

Version: 4 Type: Tab 0 ratings
1 star 2 stars 3 stars 4 stars 5 stars
comments

Son Of A Gun Tab

Intro: Verse 
E:--------------------
B:----------3-3-------
G:2-2-------2-2-------
D:2-2--2-2------2-2-2-
A:-----2-2------2-2-2-
E:--------------------

Chorus
E:------------------------------------
B:------------------------------------
G:---------5-5-5-5--7-7-7-7--5-5-5-5--
D:5-5-5-5--5-5-5-5--7-7-7-7--5-5-5-5--
A:5-5-5-5--3-3-3-3--5-5-5-5--3-3-3-3--
E:3-3-3-3-----------------------------
[ Tab from: http://www.guitartabs.cc/tabs/n/nirvana/son_of_a_gun_tab_ver_4.html ]
SOLO
E:------------------------------------
B:------------------------------------
G:---------7-7-7-7-----------7-7-7-7--
D:5-5-5-5--7-7-7-7--5-5-5-5--7-7-7-7--
A:5-5-5-5--5-5-5-5--5-5-5-5--5-5-5-5--
E:3-3-3-3-----------3-3-3-3-----------

E:------------------------------------
B:------------------------------------
G:---------9-9-9-9-----------9-9-9-9--
D:7-7-7-7--9-9-9-9--7-7-7-7--9-9-9-9--
A:7-7-7-7--7-7-7-7--7-7-7-7--7-7-7-7--
E:5-5-5-5-----------5-5-5-5-----------

Tabbed by Chris Jones from Wrexham,North Wales, UK
Comments