Nirvana - Son Of A Gun Chords & Tabs

 

Son Of A Gun Chords & Tabs

Nirvana Chords & Tabs

Version: 3 Type: Tab 0 ratings
1 star 2 stars 3 stars 4 stars 5 stars
comments

Son Of A Gun Tab

this song is pretty easy just listen to the song and have fun


verse 
--------------------------------------------------------
---------------3-3-3-3----------------------------------
---------------2-2-2-2----------------------------------
-2-2-2---------0-0-0-0----------------------------------
-0-0-0--2-2-2-----------2-2-2---------------------------
--------0-0-0-----------0-0-0---------------------------

chorus
--------------------------------------------------------
--------------------------------------------------------
-----------5555555/7777777\5555555----------------------
--5555555--5555555/7777777\5555555--5555555-------------
--5555555--3333333/5555555\3333333--5555555-------------
--3333333---------------------------3333333-------------


bridge (or what ever they call it)
[ Tab from: http://www.guitartabs.cc/tabs/n/nirvana/son_of_a_gun_tab_ver_3.html ]
---------------------------------------------------------
---------------------------------------------------------
--------------7777777---------7777777---------9999999----
------5555555/7777777-5555555/7777777-7777777/9999999----
------5555555/5555555-5555555/5555555-7777777/7777777----
------3333333---------3333333---------5555555------------


---------------------------------------------------------
---------------------------------------------------------
--------------9999999---------7777777---------7777777----
------7777777/9999999-5555555/7777777-5555555/7777777----
------7777777/7777777-5555555/5555555-5555555/5555555----
------5555555---------3333333---------3333333------------

---------------------------------------------------------
---------------------------------------------------------
---------------7777777-----------------------------------
------55555555/7777777/5555555---------------------------
------55555555/5555555/5555555---------------------------
------33333333---------3333333---------------------------
from there go right back to the start. well this is my first tab so go easy on me with 
the comments.


                            not a bad song to learn
                                    mark
Comments