Nirvana - Son Of A Gun Chords & Tabs

 

Son Of A Gun Chords & Tabs

Nirvana Chords & Tabs

Version: 3 Type: Bass Tab 0 ratings
1 star 2 stars 3 stars 4 stars 5 stars
comments

Son Of A Gun Bass Tab

NIRVANA
SON OF A GUN

Verse:
G:-------------------------------|
D:-------------------------------|
A:---------------5--5-5----------|
E:-5--5-5-0--0-0---------0--0-0--|
[ Tab from: http://www.guitartabs.cc/tabs/n/nirvana/son_of_a_gun_btab_ver_3.html ]
Chorus:
G:-----------------------------------------------------------------||
D:-----------------------------------------------------------------||
A:-----------------3-3-3-3-3-3-3-3-5-5-5-5-5-5-5-5-3-3-3-3-3-3-3-3-||
E:-3-3-3-3-3-3-3-3-------------------------------------------------||
                                           'Sun shines in the bedroom...'



BY MATTY
PLEASE rate this tab!
Comments